U2 - Seconds Chords & Tabs

 

Seconds Chords & Tabs

U2 Chords & Tabs

Version: 1 Type: Bass Tab

Seconds Bass Tab

U2  Seconds (Tab created by Kargenn - kargenn@centrum.cz)

Verse (there is same verse in the hole song)

G-----------|-----------|-----------|-----------|
D--------4-|--------4-|--------4-|-----------|
A--4--6-----|--4--6-----|--4--6-----|--4--6-----|
E-----------|-----------|-----------|-----------|

Refrain
[ Tab from: https://www.guitartabs.cc/tabs/u/u2/seconds_btab.html ]
G-----------|-----------|-----------|-----------|
D----------|----------|----------|-----------|
A---4---6---|---4---6---|---4---6---|---4---6---|
E-----------|-----------|-----------|-----------|
G-----------|-----------|-----------|-----------|
D----------|----------|----------|-----------|
A---4-------|---4-------|---4-------|---4-------|
E-------7---|-------7---|-------7---|-------7---|

G-----------|-----------|-----------|-----------|
D----------|----------|----------|-----------|
A---4---6---|---4---6---|---4---6---|---4---6---|
E-----------|-----------|-----------|-----------|
G-----------|-----------|-----------|-----------|
D----------|----------|----------|-----------|
A---4-------|---4-------|---4-------|---4-------|
E-------7---|-------7---|-------7---|-------7---|