U2 - Red Hill Mining Town Chords & Tabs

 

Red Hill Mining Town Chords & Tabs

U2 Chords & Tabs

Version: 2 Type: Tab

Red Hill Mining Town Tab

U2 - Red Hill Mining Town
By Jura Bartonek - (Jago syn jungle) From Czech republic.
This is my tab on this beautiful song. I think this is correct version but you can found some mistake/s..
[ Tab from: https://www.guitartabs.cc/tabs/u/u2/red_hill_mining_town_tab_ver_2.html ]
  INTRO:
       2x                                  Seam...       
e[---7----0-----2-(3)-----------0-(1)--*---7----0-(1)----]
B[--8----1-----3-------2-(3)---1-------*--8----1---------]
G[-7----0-----2------2--------0--------*-7----0----------]
D[------------------2------------------*-----------------]
A[-------------------------------------*-----------------]
E[-------------------------------------*-----------------] 
     --                                      4x
    And You Leave...                      Im Hanging on...               Im still waiting..        
e[--10---10---10-----5-5-5---1---1--1---*--3--3----10----10----1---1----*-8--8---3--3---1--1-1--1-----]
B[----10---10---10----5-5-5----1--1---1-*---3---3-----10---10----1--1---*--8--8---3--3---1--1--1-1----] 
G[--------------------------------------*-------------------------------*-----------------------------]  
D[--------------------------------------*-------------------------------*-----------------------------]
A[--------------------------------------*-------------------------------*-----------------------------]
E[--------------------------------------*-------------------------------*-----------------------------] 

   Time: 2:49 - electric guitar
e[-----------------------------------------------------------------------]
B[-----------------------------------------------------------------------]
G[-----------------------------------------------------------------------]
D[-----------------------------------------------------------------------]
A[-----------------------------------------------------------------------]
E[---3-----10/3---x-x-x-x-x--3----10/3---x-x-x-x-3.....repeat------------] 

  Final of the song: 
e[-----------------------------------------------3------------------------]
B[-repeat "Im still waiting..-------------------3------------------------]
G[-----------------------------------------------0------------------------]
D[-----------------------------------------------0------------------------]
A[-----------------------------------------------0------------------------]
E[-----------------------------------------------3------------------------]