Typecast - Bad News Brown Chords & Tabs

 

Bad News Brown Chords & Tabs

Typecast Chords & Tabs

Version: 3 Type: Tab

Bad News Brown Tab

   
hi po this kisho...14 yrs old, 2nd yr high... tga csa-biŮan....pangalawang tabs q plng 
pa tlaga ako..hehe....unawain nyo nlng pti intindihin nyo....tnx!


Intro:

E|-------------------------------|
B|-------------------------------|
G|---11--7--9--------------------|
D|---11--5--9--------------------|  3X po!
A|----9--5--7--------------------|
E|-------------------------------|

(di po ako cgurado d2)
E|------------------------------------------------|
B|------------------------------------------------|
G|------------------------------------------------|
D|------9---0-7---0-6---0-4---4h6-4-0-------------|
A|------------------------------------------------|
E|------------------------------------------------|


E|-------------------------------|
B|-------------------------------|
G|---11--7--9--------------------|
D|---11--5--9--------------------|  3X po ulit
A|----9--5--7--------------------|
E|-------------------------------|


E|-------------------------------------------------|
B|-------------------------------------------------|
G|-----------------------------------------7-------|
D|------9---0-7---0-6---0-4---4h6-4-0------7-------|
A|-----------------------------------------5-------|
E|-------------------------------------------------|

verse 1:

  (Youíre making this hard for me)
E|-------------------------------------------------------|
B|-------------------------------------------------------|
G|---11----7------11--11-----7---------------------------|
D|---11----7------11--11-----7---------------------------|
A|----9----5-------9---9-----5---------------------------|
E|-------------------------------------------------------|

(d2 rin di cgurado):D
  (Iím cleaning the mess Iím in.....)
E|----------------------------------------------------------------|
B|----------------------------------------------------------------|
G|----------------------------------------------------------------|
D|------7--6-6----7--6--4---4-4-----------------------------------|
A|----------------------------------------------------------------|
E|----------------------------------------------------------------|


Chorus:
 (What did those angry stares mean?)
E|--------------------------------------------|
B|--------------------------------------------|
G|---11------7--7---7------7--7---6-----------|
D|---11------7--7---7------7--7---6-----------|
A|----9------5--5---5------5--5---4-----------|
E|--------------------------------------------|
[ Tab from: https://www.guitartabs.cc/tabs/t/typecast/bad_news_brown_tab_ver_3.html ]
 (I donít understand)
E|--------------------------------------------|
B|--------------------------------------------|
G|---11----------9----------------------------|
D|---11----------9----------------------------|
A|----9----------7----------------------------|
E|--------------------------------------------|

 (You told me that Iíve changed)
E|--------------------------------------------|
B|--------------------------------------------|
G|---11------7--7---7------7--7---6-----------|
D|---11------7--7---7------7--7---6-----------|
A|----9------5--5---5------5--5---4-----------|
E|--------------------------------------------|

 (But I havenít and youíre still here)
E|--------------------------------------------|
B|--------------------------------------------|
G|---11----------9----------------------------|
D|---11----------9----------------------------|
A|----9----------7----------------------------|
E|--------------------------------------------|


Verse 2:
(In my heart since youíve been gone)(I always think about you)
E|----------------------------------------------------------------|
B|----------------------------------------------------------------|
G|---11----7------11--11-----7------------------------------------|
D|---11----7------11--11-----7------------------------------------|
A|----9----5-------9---9-----5------------------------------------|
E|----------------------------------------------------------------|

(d2 rin di cgurado):D
  (Now youíre back I donít know what to do)
E|----------------------------------------------------------------|
B|----------------------------------------------------------------|
G|----------------------------------------------------------------|
D|------7--6-6----7--6--4---4-4-----------------------------------|
A|----------------------------------------------------------------|
E|----------------------------------------------------------------|

*repeat chorus*

  (-your still here-)
E|--------------------------------|
B|--------------------------------|
G|---7---9---11-------------------|
D|---7---9---11-------------------|
A|---5---7----9-------------------|
E|--------------------------------|

Pre Chorus:
E|-------------------------------|
B|-------------------------------|
G|---11--7--9--------------------|
D|---11--5--9--------------------|  3X po!
A|----9--5--7--------------------|
E|-------------------------------|

(di po ako cgurado d2)
E|------------------------------------------------|
B|------------------------------------------------|
G|------------------------------------------------|
D|------9---0-7---0-6---0-4---4h6-4-0-------------|
A|------------------------------------------------|
E|------------------------------------------------|


-------------end--------------------

yan lng po ung alam ko........ge po...kung gus2 nyo q ma meet e2 friendster q:

ofuapc@yahoo.com

friendster ng banda:

friskyband@yahoo.com

tenku very much! go frisky!