Typecast - Bad News Brown Chords & Tabs

 

Bad News Brown Chords & Tabs

Typecast Chords & Tabs

Version: 1 Type: Tab

Bad News Brown Tab

Song:Bad News Brown
Album:Every Moss and Cobweb
Artist:Typecast
Date Tabbed:October,2006
Guitar Tabber:Ryan Manongdo/16/m/Montalban Rizal
              no_falter0X@yahoo.com(Friendster&YM)

For your questions or suggestions,just post in friendster comment,PM or mail me.
             
Guitar Legends:
~ - LET IT RING
. - PALM MUTING
x - DEAD STRING OR SCRATCHING
p - PULL-OFF
b - BEND

Guitar Tuning:Drop C

Intro:Repeat 2x
Do a pick slide first...
Gtr.1               Gtr.2 Enters:
D|--------------    ----------|
A|--------------    ----------|
F|-------------- 3x -3-4-3~---| Then
C|-66-22-44444--    ----------|
G|-66-22-44444--    ----------|
C|-66-22-44444--    ----------|

Gtr.1:
D|-----------------------|
A|-----------------------|
F|-----------------------|
C|-22---22----22----22---|
G|-22---22----22----22---|
C|-22---22----22----22---|
   ..   ..    ..    ..

Gtr.2:
D|------------------------|
A|----5---4---3-----------|
F|------------------4p3---|
C|------------------------|
G|-xx--xx---xx---xx-------|
C|-xx--xx---xx---xx-------|


Verse 1:
You're making this hard for me...
D|---------------------|
A|---------------------|
F|---------------------|
C|-6~---2~---66---2~---|
G|-6~---2~---66---2~---|
C|-6~---2~---66---2~---|
             ..

Pre-Chorus 1:
Please don't pretend...
Gtr.1:
D|---------------------------------------|
A|---------------------------------------|
F|---------------------------------------|
C|-666666--2222222--666666--222222--2~---|
G|-666666--2222222--666666--222222--2~---|
C|-666666--2222222--666666--222222--2~---|
   ......  .......  ......  ......
[ Tab from: https://www.guitartabs.cc/tabs/t/typecast/bad_news_brown_tab.html ]
Gtr.2:
C|--------------------------------------|
G|--------------------------------------|
C|-------------------------10------10---| 2x
F|-8888--10--8888-10--8888----8888------|
A|--------------------------------------|
D|--------------------------------------|
   ....  .   .... .   ..... . .... .

Chorus:
Why did those angry stares on me...
D|---------------------------|
A|---------------------------|
F|---------------------------|
C|-6666666666---2222xxx222---|
G|-6666666666---2222xxx222---|
C|-6666666666---2222xxx222---|

Verse 2:Play Verse 1
In my heart...

Pre-Chorus 2:Play Pre-Chorus 1
Now you're back...

Repeat Chorus:

Bridge:
Your still here...
C|----------------------------------|
G|----------------------------------|
C|----------------------------------| Then
F|-666666--888888--999999--888888---|
A|-444444--666666--777777--666666---|
D|----------------------------------|

Gtr.1
C|-------------------------------------|
G|-------------------------------------|
C|-------------------------------------|
F|-666666--888888--99999999999999999---|
A|-444444--666666--77777777777777777---|
D|-------------------------------------|

Gtr.2:
C|-2----------------             -------|
G|---3-2-4-3-2-3-2-- Repeat      -3b~---|
C|------------------ Many Times  -------|
F|------------------ Then        -------|
A|------------------             -------|
D|------------------             -------|


Outro:Play Intro:
And I know it.....

Last Chord:
C|------|
G|------|
C|------|
F|-2~---|
A|-2~---|
D|-2~---|

End...


Bad News Brown Lyrics:

Verse 1:
Youíre making this hard for me 
Iím cleaning the mess Iím in

Pre-Chorus:
Please donít pretend
Cause youíre just the same like me

Chorus
What did those angry stares mean?
I donít understand
You told me that Iíve changed 
But I havenít and youíre still here

Verse 2:
In my heart since youíve been gone
I always think about you 

Pre-Chorus 2:
Now youíre back I donít know what to do 
I know we can never be
And I know it but 
I donít want to believe 

Repeat Chorus: