Trivium - When All Light Dies Chords & Tabs

 

When All Light Dies Chords & Tabs

Trivium Chords & Tabs

Version: 4 Type: Tab

When All Light Dies Tab

Tabbed by: Ricky stickland
E-mail: Ricrdooya@hotmil.com

Tunning: drop D
Sorry no solo. I supprised myself with how quickly i tabbed it, and over the past month 
have pretty much perfected it. Please rate it, thank you! Im not totaly sure what guitar 
plays and what guitar two plays, so these are the lead parts...

Intro
e|--------------------------------------------------|
B|--------------------------------------------------|
G|--------------------------------------------------|
D|--------------5----------------------7------------| Repeat as needed
A|--5h7-8p5-5h7--h7-5-7--7h10-10p8-7h10--h10-7h8p5--|
E|-0---0---0---0---0-0--0----0----0----0----0-------|
PM .   .   .   .  . .  .    .    .    .    .

e|---------------------------------------------------------------------|
B|---------------------------------------------------------------------|
G|---------------------------------------------------------------------|
D|---------------------------------------------------------------------|
A|---5--5--5--5--7-8--8--8--8--8--7-5----12----12----12----12----10--8-|
E|-66-66-66-66-66-6-99-99-99-99-99-9-1010--1010--1010--1010--1010--10--|
PM .. .. .. .. .. . .. .. .. .. .. .  . .   . .   . .   . .   . .   .


e|----------------------------------------------------------------------|
B|----------------------------------------------------------------------|
G|----------------------------------------------------------------------|
D|---------------------------------   *Repeat as needed*   -------------|
A|-----10----10----10--10-5~~-------------------------------------------|
E|-1010--1010--1010--10--0----------------------------------------------|
PM  . .   . .   . .   .  .

(Strum this fairly fast, the numbers are just clues to how fast)
e|----------------------------------------------------------------------|
B|--------------------   *Alternate pick*    ---------------------------|
G|----------------------------------------------------------------------|
D|-0-000000000000-00-8-8-----88-10-----10/12-12----10----8--------------|x2
A|-0-000000000000-00-8-8-x12-88-10-x16-10/12-12-x8-10-x4-8-x4-----------|
E|-0-000000000000-00-8-8-----88-10-----10/12-12----10----8--------------|
PM   ............      .

[ Tab from: https://www.guitartabs.cc/tabs/t/trivium/when_all_light_dies_tab_ver_4.html ]
e|-------------------------------------------------------------------------|
B|---------------------   *Repeat as needed*   ----------------------------|
G|-------------------------------------------------------------------------|
D|-----------------------------5------------------------------------7------|
A|--5--7--5--8--7--5--7--5--7-----7--5--8--7--8--10--8--7--8--7--8-----8--7|
E|66-66-66-66-66-66-66-66-66-66-66-66-88-88-88-88--88-88-88-88-88-88-88-88-|
PM.. .. .. .. .. .. .. .. .. .. .. .. .. .. .. ..  .. .. .. .. .. .. .. ..

e|---------------------------------------------------------------------------|
B|---------------------------------------------------------------------------|
G|---------------------------------------------------------------------------|
D|-0000-8888-5555-7777-8-10----0--------------------------------------------|
A|-0000-8888-5555-7777-8-10----0- *let ring*  ------------------------------|
E|-0000-8888-5555-7777-8-10----0--------------------------------------------|

The heavy stuff played whilst matt shouts about gaining revenge is easy, just palm 
the open d and a strings together...

This is between the mutting of the d and a strings, when matts not shouting
e|------------------------------------------------------------------------|
B|------------------------   *Repeat as needed*   ------------------------|
G|------------------------------------------------------------------------|
D|-0144----0-0455----0-0588----0------------------------------------------|
A|-0144-0000-0455-0000-0588-0000-0-7-8-10-80-70---------------------------|
E|-0144-0000-0455-0000-0588-0000-0-7-8-10-80-70---------------------------|
PM      ...       ...       ...  . . .  . .. ..

Under solo, just repeat it as needed
e|----------------------------------------------------------------------|
B|----------------------------------------------------------------------|
G|----------------------------------------------------------------------|
D|-0-----0-----0-----0-----0-8----5----7----3---------------------------|
A|-0-00000-00000-00000-00000-8-x6-5-x6-7-x6-3-x6------------------------|
E|-0-00000-00000-00000-00000-8----5----7----3---------------------------|
PM   ....  ....  ....  ....
Outro, this is harmonised but I dont know the other part
e|-------------------------------------------------------------------------|
B|-------------------------------------------------------------------------|
G|-------------------------------------------------------------------------|
D|-00000000-2222-3333-88888888-7777-5555-10-----8888-7777-33333333-777777-3|
A|-00000000-2222-3333-88888888-7777-5555-10-x8--8888-7777-33333333-777777-3|
E|-00000000-2222-3333-88888888-7777-5555-10-----8888-7777-33333333-777777-3|

thats it from me, enjoy and please rate it! email me if u want any more tabs by trivium.