Trivium - My Hatred Chords & Tabs

 

My Hatred Chords & Tabs

Trivium Chords & Tabs

Version: 4 Type: Tab

My Hatred Tab

My Hatred
Trivium
tabbed by: Erik
comments/questions: ewlord-1492@hotmail.com
standard tuning: EADGBe

i couldn't find a decent version for this awesome song... so i tabbed my own. hope you 
it
this is the entire song in order, except the solo. its too fuckin hard

---------------------------------------------------------------|
---------------------------------------------------------------|
---------------------------------------------------------------|
-2---2-44455544-2---2-44455544-5---5-44455544-7---7-77755544---|
-2---2----------2---2----------5---5----------7---7------------|
-0-000----------0-000----------3-333----------5-555------------|

---------------------------------------------------------------|
---------------------------------------------------------------|
---------------------------------------------------------------|
-2---2-44455544-2---2-44455544-5---5-44455544-7---7-77755544---|
-2---2----------2---2----------5---5----------7---7------------|
-0-000----------0-000----------3-333----------5-555------------|

---------------------------------------------------------------|
---------------------------------------------------------------|
-------22244422-------22244422-------22244422-2---2-55544422---|
-2---2----------2---2----------5---5----------2---2------------|
-2---2----------2---2----------5---5----------0-000------------|
-0-000----------0-000----------3-333---------------------------|

---------------------------------------------------------------|
---------------------------------------------------------------|
-------22244422-------22244422-------22244422-2---2-55544422---|
-2---2----------2---2----------5---5----------2---2------------|
-2---2----------2---2----------5---5----------0-000------------|
-0-000----------0-000----------3-333---------------------------|

-----
-----
-----
-2---
-2---
-0---

-------------------------------------------------------|
-------------------------------------------------------|
-------------------------------------------------------|
-------------------------------------------------------|
-----767----------767----------767-------10--9--10--6--|
--000---000320-000---000507-000---000320---00-00--00---|

-------------------------------------------------------|
-------------------------------------------------------|
-------------------------------------------------------|
-------------------------------------------------------|
-----767----------767----------767-------10--9--10--6--|
--000---000320-000---000507-000---000320---00-00--00---|

---------------------------------------------------|
---------------------------8-----------------------|
-----------------545-7--4-----5--7--4--5--2--4-----|
-----------767----------------------------------5--|
-----878--------------00-00-00-00-00-00-00-00-00---|
--555---555---555----------------------------------|

-----------------------------------------------------------------------|
--------------------------8p0h8----------------------------------------|
-----------------545-7--4-------5p0h5-7p0h7-4p0h4-5p0h5-2p0h2-4p0h4----|
-----------767------------------------------------------------------5--|
-----878--------------00-----------------------------------------------|
--555---555---555------------------------------------------------------|

Verse (Play 4x)
-----------------------------|
-----------------------------|
-----------------------------|
-----------------------------|
-----767---------------------|
--000---000320-000000000000--|

Chorus
------------------------|
------------------------|
------------------------|
------------------------|
-----7----7----9--7--6--|
--555--555--555-55-55---|

--------------------------|
--------------------------|
--------------------------|
--------------------------|
-----6--7--9-----6--7--5--|
--777-77-77---444-44-44---|

Verse (Play 4x)
-----------------------------|
-----------------------------|
-----------------------------|
-----------------------------|
-----767---------------------|
--000---000320-000000000000--|
[ Tab from: https://www.guitartabs.cc/tabs/t/trivium/my_hatred_tab_ver_4.html ]
Chorus (Itís longer this time)
------------------------|
------------------------|
------------------------|
------------------------|
-----7----7----9--7--6--|
--555--555--555-55-55---|

--------------------------|
--------------------------|
--------------------------|
--------------------------|
-----6--7--9-----6--7--5--|
--777-77-77---444-44-44---|

------------------------|
------------------------|
------------------------|
------------------------|
-----7----7----9--7--6--|
--555--555--555-55-55---|

----------------------------|
----------------------------|
----------------------------|
----------------------------|
-----6--7--9-----9--10--12--|
--777-77-77---888-88--88----|

-----------|
-----------|
--9-8-9-11-|
--x-x-x-x--|
--7-6-7-9--|
-----------|

Alternate Chorus thingy (Play 4x)
----------------------------------------|
----------------------------------------|
--9--11-12-----------7p0h7-5p0h5-4p0h4--|
--x--x--x--2--7--9----------------------|
--7--9--10-2------10--------------------|
-----------0----------------------------|

Verse (Play 4x)
-----------------------------|
-----------------------------|
-----------------------------|
-----------------------------|
-----767---------------------|
--000---000320-000000000000--|

Chorus
------------------------|
------------------------|
------------------------|
------------------------|
-----7----7----9--7--6--|
--555--555--555-55-55---|

--------------------------|
--------------------------|
--------------------------|
--------------------------|
-----6--7--9-----6--7--5--|
--777-77-77---444-44-44---|

------------------------|
------------------------|
------------------------|
------------------------|
-----7----7----9--7--6--|
--555--555--555-55-55---|

----------------------------|
----------------------------|
----------------------------|
----------------------------|
-----6--7--9-----9--10--12--|
--777-77-77---888-88--88----|

Alternate Chorus thingy again (Play 4x)
----------------------------------------|
----------------------------------------|
--9--11-12-----------7p0h7-5p0h5-4p0h4--|
--x--x--x--2--7--9----------------------|
--7--9--10-2------10--------------------|
-----------0----------------------------|

Bridge (2:54)
--------------------|
--------------------|
--------------------|
--2----2----2----2--|
--2----2----2----2--|
--0----0----0----0--|

--------------------------------------|
--------------------------------------|
--------------------------------------|
--------------------------------------|
--7-99-66-1010-77-6--6-99-77-99-77-6--|
--------------------------------------|

---------------------------------------|
---------------------------------------|
---------------------------------------|
---------------------------------------|
------7-----7-----7-----7--5--4--5--4--|
--555-5-555-5-555-5-555-5--3--2--3--2--|

--------------------------------------|
--------------------------------------|
--------------------------------------|
--------------------------------------|
--7-99-66-1010-77-6--6-99-77-99-77-6--|
--------------------------------------|

---------------------------------------|
---------------------------------------|
---------------------------------------|
---------------------------------------|
------7-----7-----7-----7--5--4--5-----|
--555-5-555-5-555-5-555-5--3--2--3-----|

Solo (3:17)
Thatís wayyyyyyyy too damn hard.. tab your own solo

Alternate Chorus thingy again (Play 6x)
----------------------------------------|
----------------------------------------|
--9--11-12-----------7p0h7-5p0h5-4p0h4--|
--x--x--x--2--7--9----------------------|
--7--9--10-2------10--------------------|
-----------0----------------------------|

---------------------------------------------------------------|
---------------------------------------------------------------|
---------------------------------------------------------------|
-2---2-44455544-2---2-44455544-5---5-44455544-7---7-77755544---|
-2---2----------2---2----------5---5----------7---7------------|
-0-000----------0-000----------3-333----------5-555------------|

-------|
-------|
-------|
-2---2-|
-2---2-|
-0-000-|

there you have it