Trivium - Into The Mouth Of Hell We March Chords & Tabs

 

Into The Mouth Of Hell We March Chords & Tabs

Trivium Chords & Tabs

Version: 1 Type: Tab

Into The Mouth Of Hell We March Tab

   
Artist: Trivium
Album: Shogun
Song: Into The Mouth of Hell We March
Tabbed by: Dan O'Brien
Tuning: Standard

This is one of Triviums newest songs that people got off of the Madden 09 game. This is
from perfect
but its okay if you just wanna play along with the song. Oh, and remember to read whats
the brackets
because i tried to make it less confusing (but prob failed)

Update 07-08-08: 'Hairyjonny' has very kindy let me use his tab for the solo (cheers 
so full credit to him for the solo.


Riff A  (play all the way through on the first time, but on second time, end on the 16)
e|-------|-----------------------------------------------------------------------|
B|-------|-----------------------------------------------------------------------|
G|-------|*--11--12--9~~--11h12p11----------11h12p11--------------11--12--16~~---|
D|--10---|*------------------------12--10------------12--10----------------------|
A|-------|-----------------------------------------------------------------------|
E|-------|-----------------------------------------------------------------------|

e|-------------------------------------------|
B|-------------------------------------------|
G|--11h12p11----------11h12p11--------------*| X2
D|-----------12--10------------12--10-------*|
A|-------------------------------------------|
E|-------------------------------------------|


Riff B
e|--------------------------------------------------------------------------------|
B|--------------------------------------------------------------------------------|
G|--------------------------------------------------------------------------------|X4
D|-----------5------4-------------5------2------7-7-----5-5-----10-10-----9-9-----|
A|--333-3--3----3-3------333-3--3----3-2----777-7-7-777-5-5-777--7--7-777--7-7-----|
E|--------------------------------------------------------------------------------|
 PM ...    .    .        ...    .    .      ...     ...     ...       ...


Riff C
e|------------------------------------------------------------------------------------------------|
B|------------------------------------------------------------------------------------------------|
G|------------------------------------------------------------------------------------------------|
D|-----5-4-5-7-5-4-5-4---------5-4-5-7-5-4-5-4----------5-4-5-7-5-4-5-4--------5-4-5-7-5-4-5-4----|
A|3-33-----------------5--3-33-----------------5--7-77------------------5--7-77----------------5--|
E|------------------------------------------------------------------------------------------------|

e|------------------------------------------------------------------------------------------------|
B|------------------------------------------------------------------------------------------------|
G|------------------------------------------------------------------------------------------------|
D|-----5-4-5-7-5-4-5-4---------5-4-5-7-5-4-5-4----------5-4-5-7-5-4-5-4----10-9-7-9-7-5-7-5-4-5-4-|
A|3-33-----------------5--3-33-----------------5--7-77------------------5------------------------7|
E|------------------------------------------------------------------------------------------------|
X2


Riff D(a)
e|----------------------------------------------------------------------------------------|
B|--12------------------12----------------------------------------------------------------|
G|-----12-11-12-9-7-9~~-----12-11-12-9-7-9--11-11h12p11-9-7---(7)/9-9-9-/11-7-11-12-11-9--|
D|----------------------------------------------------------------------------------------|
A|----------------------------------------------------------------------------------------|
E|----------------------------------------------------------------------------------------|

e|-------------------------------|
B|-------------------------------|
G|--9-9-9h11-7-7-11-12-11-9-7----| X 1
D|-------------------------------|
A|-------------------------------|
E|-------------------------------|


Riff B (only do it twice this time)
Riff C
Miss out Riff D (a) and go straight to Riff D (b)

Riff D (B)
e|----------------------------------------------------------------------------------------------|
B|-12------------------12-----------------------------------12-----------------12---------------|
G|----12-11-12-9-7-9~------12-11-12-9-7-9--11-11h12p11-9-7----12-11-12-9-7-9~-----12-11-12-9-7-9|
D|----------------------------------------------------------------------------------------------|
A|----------------------------------------------------------------------------------------------|
E|----------------------------------------------------------------------------------------------|

e|-----------------------|
B|-----------------------|
G|---12--11--9--7--------|
D|-----------------------|
A|-----------------------|
E|-----------------------|

Riff E
e|-----------------------------------------------|
B|-12-------------12-----------------------------|
G|-------11-12~~--------11-12--14-12-11----------|
D|----14-------------14-----------------14-------|
A|-----------------------------------------------|
E|-----------------------------------------------|
X 11 or 12 (I kept losing count lol)


Riff F
e|---------------------------------------------------------------------------------------|
B|---------------------------------------------------------------------------------------|
G|---------------------------------------------------------------------------------------|X2
D|--------9-7---------------------9-7---------12~----------9-7-------------9--7---10--9--|
A|-7-9-10-----10-9-10-7~---5-9-10-----10-9-10---------9-10-----10-9-10-7-----------------|
E|--------------------------------------------------8------------------------------------|


Riff G
e|--------------------------------------------------------------------------------|
B|--------------------------------------------------------------------------------|
G|--------------------------------------------------------------------------------|
D|--------------------------------------------------------------------------------|
A|--------------------------------------------------------------------------------|
E|-0-000-0-000-0h5h7---0-000-0-000-0h7h8---0-000-0-000-0h8h10---------------------|


Solo (hairyjonny for the solo \m/ )
e|---------------------------------------------------------------------------|
B|-18-18-18-18-18-18-18-18-17-18-17-17-17-17-17-17-17-17-16-17-16-16-16-16-16|
G|---------------------------------------------------------------------------|
D|---------------------------------------------------------------------------|
A|---------------------------------------------------------------------------|
E|---------------------------------------------------------------------------|

e|-------------------------------------------------21-18-17------------------|
B|-16-16-16-16-15-16-15-15-15-15-15-15-15-15-16-17----------20-18-17---------|
G|--------------------------------------------------------------------19-17--|
D|---------------------------------------------------------------------------|
A|---------------------------------------------------------------------------|
E|---------------------------------------------------------------------------|


e|---------------------------------------------------------------------------|
B|---------------------------------------------------------------------------|
G|-16--------------------------------------------------------h--T--p--p--h--T|
D|----19-17-15-17-15-14-15-14-12---------------------------10-12-13-12-10-12-|
A|-------------------------------15-14-12------------------------------------|
E|----------------------------------------15-14-10-12~~----------------------|
[ Tab from: https://www.guitartabs.cc/tabs/t/trivium/into_the_mouth_of_hell_we_march_tab.html ]
e|--------------------------------------------------------------------h--T--p|
B|------------------------------h--T--p--p--h--T--p--p--h--T--p-h--12-13-15-|
G|--p--p--h--T--p--h--T--p----11-12-14-12-11-12-14-12-11-12-14-12------------|
D|13-10-12-13-12-10-12-13-12-------------------------------------------------|
A|---------------------------------------------------------------------------|
E|---------------------------------------------------------------------------|
                                                                 H  T  p  p
e|--p--h--T--p--p--h--T------h--T--p--p--h--T--p--p--h-T--p---12-14-15-14-12|
B|13-12-13-15-13-12-13-15--13-15-17-15-13-15-17-15-13-15-17-15---------------|
G|---------------------------------------------------------------------------|
D|---------------------------------------------------------------------------|
A|---------------------------------------------------------------------------|
E|---------------------------------------------------------------------------|
  h  T  p  p  h  T  p        p  p  h  p  p      p  p  h  p  p     p  p
e|-14-15-14-12-14-15-14----20-19-17-20-19-17--19-17-15-19-17-15-15-14-12---p-|
B|-----------------------------------------------------------------------15--|
G|---------------------------------------------------------------------------|
D|---------------------------------------------------------------------------|
A|---------------------------------------------------------------------------|
E|---------------------------------------------------------------------------|

e|---p-----------------------------------------------------17-15-14-15-------|
B|-13-12--------------------------------------10-----------------------------|
G|-------14~~------------------------------------12-11-12--------------------|
D|---------------------------------------------------------------------------|
A|------------------------------12-------------------------------------------|
E|------------------12-15-14-15----15-14-15----------------------------------|
      tr          tr
e|--1415\------1214\--------tr---------------------------------------------|
B|---------------------------8-10\\\----------------------------------------|
G|------------------------------------------tr-------------------------------|
D|-----------------------------------------45\---2~~------------------------|
A|---------------------------------------------------------------------------|
E|---------------------------------------------------------------------------|


2 Guitar Part

Guitar 1
3:53

e|---------------------------------------------------------------------------|
B|-----h--p-------------h--p-------------h--p--------------h--p--------------|
G|---11-12-11---------15-16-15---------17-18-17----------15-16-15------------|
D|---------------------------------------------------------------------------|
A|---------------------------------------------------------------------------|
E|---------------------------------------------------------------------------|

Guitar 2

e|---------------------------------------------------------------------------|
B|---------------------------------------------------------------------------|
G|-----------99999999--------99999999-----------99999999----------99999999---|
D|---------------------------------------------------------------------------|
A|---------------------------------------------------------------------------|
E|---------------------------------------------------------------------------|


 The rest is one guitar again

   Guitar 1 -
e|-15-15-15-15-14-14-14-14-12-12-12-12-14-14-14-14---------------------------|
B|-------------------------------------------------15-15-15-15-13-13-13-13-12|
G|---------------------------------------------------------------------------|
D|---------------------------------------------------------------------------|
A|---------------------------------------------------------------------------|
E|---------------------------------------------------------------------------|

e|---------------------------------------------------------------------------|
B|-12-12-12-13-13-13-13------------------------------------------------------|
G|----------------------14-14-14-14-12-12-12-12-11-11-11-11-12-12-12-12-11-11|
D|---------------------------------------------------------------------------|
A|---------------------------------------------------------------------------|
E|---------------------------------------------------------------------------|

e|---------------------------------------------------------------------------|
B|---------------------------------------------------------------------------|
G|-11-11-9~~~----------------------------------------------------------------|
D|---------------------------------------------------------------------------|
A|---------------------------------------------------------------------------|
E|---------------------------------------------------------------------------|

  3:57
e|------------19-17-15-20-19-17-22-20-19-22-20-19-20-19-17-19-17-15-17-15-14-|
B|---20-19-17----------------------------------------------------------------|
G|---------------------------------------------------------------------------|
D|---------------------------------------------------------------------------|
A|---------------------------------------------------------------------------|
E|---------------------------------------------------------------------------|

e|-15-14-12------------------------------------------------------------------|
B|----------15-13-12---------------------------------------------------------|
G|-------------------14-12-11-12-12-12-11-9~~--------------------------------|
D|---------------------------------------------------------------------------|
A|---------------------------------------------------------------------------|
E|---------------------------------------------------------------------------|

e|-15-14-12-14-12-11-12-11-8-11-8-7-8-7-5-7-5-3-5-3-2-3-2-0------------------|
B|---------------------------------------------------------------------------|
G|---------------------------------------------------------------------------|
D|---------------------------------------------------------------------------|
A|---------------------------------------------------------------------------|
E|---------------------------------------------------------------------------|

   4:02
e|---------------------------------------------------------------------------|
B|-----------------------------------------------------------12-13-15-13-12--|
G|-/9-8~~---/12-11~~---/16-15---/19-18~~------11-12-14-12-11-----------------|
D|---------------------------------------------------------------------------|
A|---------------------------------------------------------------------------|
E|---------------------------------------------------------------------------|

e|--12-14-15-14-12--------------------12-14-15-14-12-14-15-17-15-14-----12-14|
B|---------------------12-13-15-13-12----------------------------------------|
G|---------------------------------------------------------------------------|
D|---------------------------------------------------------------------------|
A|---------------------------------------------------------------------------|
E|---------------------------------------------------------------------------|

e|-15-14-12-14-15-17-15-14-17-19-17-15------/15--14~~----/20--19~~-----------|
B|---------------------------------------------------------------------------|
G|---------------------------------------------------------------------------|
D|---------------------------------------------------------------------------|
A|---------------------------------------------------------------------------|
E|---------------------------------------------------------------------------|

   4:10
e|-10----------12---------13---------12--------10---------8---------6--------|
B|-13b(15)-----15b(17)----16(b18)----15b(17)---13b(15)----13b(15)---9b(11)---|
G|---------------------------------------------------------------------------|
D|---------------------------------------------------------------------------|
A|---------------------------------------------------------------------------|
E|---------------------------------------------------------------------------|
                             P                             p
e|--5----------------------17-12--------------------12----1410---------------|
B|--8b(10)----------------------13----------------13----------12-------------|
G|--------------------------------14------------14--------------11-----------|
D|----------------------------------14--------14------------------12-------12|
A|------------------------------------15-12-15----------------------14-9-14--|
E|---------------------------------------------------------------------------|
              P                          p
e|-----10---12-8-----------------8-----10-7-------------7--------------------|
B|---12---------10-------------10----------8-----------8---------------------|
G|-11-------------9-----------9-------------9---------9----------------------|
D|-----------------10-------10---------------9-------9-----------------------|
A|-------------------12-9-12------------------10-7-10------------------------|
E|---------------------------------------------------------------------------|

  4:20
      P                             P                            P
e|--17-12--------------------12---14-10-------------------10---12-8----------|
B|-------13----------------13----------12---------------12---------10--------|
G|---------14------------14--------------11-----------11-------------9-------|
D|-----------14--------14------------------12-------12----------------10-----|
A|-------------15-12-15----------------------14-9-14--------------------12-9-|
E|---------------------------------------------------------------------------|
                            P
e|--------8-----15b(17)---15-12----12----------------------------------------|
B|------10----------------------15----15b(17)--------------------------------|
G|-----9---------------------------------------------------------------------|
D|---10----------------------------------------------------------------------|
A|-12------------------------------------------------------------------------|
E|---------------------------------------------------------------------------|

Riff B (only do it twice this time)
Riff C (only do it once this time)
Riff D(b)


Riff H  (im not sure about this bit, so i just put the notes what matt was singing)
e|------------------------|
B|------------------------|
G|--7-7-9----9-10-9-7-----|
D|--------12--------------|
A|------------------------|
E|------------------------|

Then finish with Riff A then Riff E

please send corrections, money ect. to me. PLZ RATE!!