Trivium - Declaration Chords & Tabs

 

Declaration Chords & Tabs

Trivium Chords & Tabs

Version: 3 Type: Tab

Declaration Tab

   
----------------------------------------------------------------------------------
Trivium - Declaration

Tabbed by:
Email:christieroad1015@AOL.com

Tuning:Drop D


This is my first tab so there probably mistakes and stuff, also i couldn't work out a
of the song.

I only got the backing for the intro

Gtr 2 Backing
e|-------------------------------------------------------------------|
B|---------------------------------10-9-5-7-9------------------------|
G|-------9-7-6--------------9-7-6------------------------------------|
D|6-7-6---------6-7--6-7-6-------------------------------------------|
A|-------------------------------------------------------------------|
E|-------------------------------------------------------------------|

verse

Gtr 1 only
e|-------------------------------------------------------------------|
B|-------------------------------------------------------------------|
G|-------------------------------------------------------------------|
D|-------------------------------------------------------------------|
A|4h5h7------------5h7h8--------7h8h10--------8h9h11-----------------|
E|------0000000000--------0000---------000000------------------------|
pm      ..........        ....         ......
both guitars do this part
e|-------------------------------------------------------------------|
B|-------------------------------------------------------------------|
G|-------------------------------------------------------------------|
D|-------------------------------------------------------------------|
A|5h7-------------3h5--7h9-------------------------------------------|
E|-----111111111-----------4444444444--------------------------------|
       .........           ..........
both guitars then repeat the verse from the start 2 more times

then:
Both Guitars
e|-------------------------------------------------------------------|
B|-------------------------------------------------------------------|
G|-------------------------------------------------------------------|
D|7-------------7-7--------7-7-7-7--2/4-----------2/4----------------|
A|5-------------5/4--------4-4-4/5--2/4-----------2/4----------------|
E|--000000000000---000000---0-0-----2/4-444444444-2/4-444444444------|
    ............   ......   . .         .........

Harmony
Guitar 1
e|-------------------------------------------------------------------|
B|-------------------------------------------------------------------|
G|-------------------------------------------------------------------|
D|------------0h6h7-----------------0h7h11--11~----------------------|
A|------0h5h7---------------0h7h11-----------------------------------|
E|0h6h7--------------0h7h11------------------------------------------|

Guitar 2
e|-------------------------------------------------------------------|
B|-------------------------------------------------------------------|
G|-------------------------------------------------------------------|
D|------------0h2h4--------------0h4h7--7~---------------------------|
A|------0h2h4--------------0h4h7-------------------------------------|
E|0h2h4--------------0h4h7-------------------------------------------|

repeat the verse again

then:

e|--------------------------------------------------------------------|
B|--------------------------------------------------------------------|
G|11-11-11-11-11-11-11-11-11-11-11-11-11-11-9-9-9-9-9-9-9-9-9-9-9-9---|
D|x--x--x--x--x--x--x--x--x--x--x--x--x--x--x-x-x-x-x-x-x-x-x-x-x-x---|
A|9--9--9--9--9--9--9--9--9--9--9--9--9--9--7-7-7-7-7-7-7-7-7-7-7-7---|
E|--------------------------------------------------------------------|

e|-------------------------------------------------------------------|
B|-------------------------------------------------------------------|
G|13-13-13-13-14-14-14-14------18-18-18-18-18--18-18-18-18-18--18-18-|
D|x--x--x--x--x--x--x--x-------x--x--x--x--x---x--x--x--x--x---x--x--|
A|11-11-11-11-12-12-12-12------16-16-16-16-16--16-16-16-16-16--16-16-|
E|-------------------------------------------------------------------|

e|-------------------------------------------------------------------|
B|----5------5------5------5-------5---------------------------------|
G|-------------------------------------------------------------------|
D|6-7---6-7----6-7----6-7-----6-7------------------------------------|
A|-------------------------------------------------------------------|
E|-------------------------------------------------------------------|

e|-------------------------------------------------------------------|
B|-------------------------------------------------------------------|
G|-------------------------------------------------------------------|
D|0--4--0--7---------------------------------------------------------|
A|0--4--0--7---------------------------------------------------------|
E|0--4--0--7---------------------------------------------------------|


this riff keeps playing until the solo starts
e|-------------------------------------------------------------------|
B|-------------------------------------------------------------------|
G|-------------------------------------------------------------------|
D|4-4-4-4-44-4-44-4-44--0-0-0-0-00-0-00-0-00-------------------------|
A|4-4-4-4-44-4-44-4-44--0-0-0-0-00-0-00-0-00-------------------------|
E|4-4-4-4-44-4-44-4-44--0-0-0-0-00-0-00-0-00-------------------------|
pm        ..   ..   ..          ..   ..   ..


this is played behind each of the 4 open chords by the second guitar
e|-------------------------------------------------------------------|
B|-------------------------------------------------------------------|
G|-------------------------------------------------------------------|
D|14-14-14-14--------------------------------------------------------|
A|x--x--x--x---------------------------------------------------------|
E|12-12-12-12--------------------------------------------------------|

the next bit is the solo, sorry but i couldn't get it and you can't really hear the
well enough to tab it, it sounds like a selection of palm muted chords that are all played
open, Iíll tab it eventually

after the solo

i'm not really sure about this part the strumming is all wrong to so you'll have to work 
out yourself

e|-------------------------------------------------------------------|
B|-------------------------------------------------------------------|
G|-------------------------------------------------------------------|
D|8-8-8-7-7-7-5-5-5--8-5-7---10-10-10-10--8--8--8--8----7--7--7--7---|
A|8-8-8-7-7-7-5-5-5--8-5-7---8--8--8--8---8--8--8--8----5--5--5--5---|
E|8-8-8-7-7-7-5-5-5--8-5-7---8--8--8--8---8--8--8--8----5--5--5--5---|
[ Tab from: https://www.guitartabs.cc/tabs/t/trivium/declaration_tab_ver_3.html ]
i couldn't get the next part though it is probably similar to the first part of the verse

this part does apear during the fast bit

e|-------------------------------------------------------------------|
B|-------------------------------------------------------------------|
G|-------------------------------------------------------------------|
D|-------------------------------------------------------------------|
A|-------------------------------------------------------------------|
E|5-5-6-6-4-4--------------------------------------------------------|pm. . . . . .

after the fast bit it goes:

e|-------------------------------------------------------------------|
B|-------------------------------------------------------------------|
G|-------------------------------------------------------------------|
D|-------------------------------------------------------------------|
A|-------------------------------------------------------------------|
E|555566664444-556644-555566664444-556644----------------------------|


verse
x2

e|-------------------------------------------------------------------|
B|-------------------------------------------------------------------|
G|-------------------------------------------------------------------|
D|-------------------------------------------------------------------|
A|4h5h7------------5h7h8--------7h8h10--------8h9h11-----------------|
E|------0000000000--------0000---------000000------------------------|
pm      ..........        ....         ......

e|-------------------------------------------------------------------|
B|-------------------------------------------------------------------|
G|-------------------------------------------------------------------|
D|-------------------------------------------------------------------|
A|5h7-------------3h5--7h9-------------------------------------------|
E|-----111111111-----------4444444444--------------------------------|
       .........           ..........

then:
Both Guitars
e|-------------------------------------------------------------------|
B|-------------------------------------------------------------------|
G|-------------------------------------------------------------------|
D|7-------------7-7--------7-7-7-7--2/4-----------2/4----------------|
A|5-------------5/4--------4-4-4/5--2/4-----------2/4----------------|
E|--000000000000---000000---0-0-----2/4-444444444-2/4-444444444------|
    ............   ......   . .         .........     .........

Harmony

Guitar 1
e|-------------------------------------------------------------------|
B|-------------------------------------------------------------------|
G|-------------------------------------------------------------------|
D|------------0h6h7-----------------0h7h11--11~----------------------|
A|------0h5h7---------------0h7h11-----------------------------------|
E|0h6h7--------------0h7h11------------------------------------------|

Guitar 2
e|-------------------------------------------------------------------|
B|-------------------------------------------------------------------|
G|-------------------------------------------------------------------|
D|------------0h2h4--------------0h4h7--7~---------------------------|
A|------0h2h4--------------0h4h7-------------------------------------|
E|0h2h4--------------0h4h7-------------------------------------------|


then:

e|--------------------------------------------------------------------|
B|--------------------------------------------------------------------|
G|11-11-11-11-11-11-11-11-11-11-11-11-11-11-9-9-9-9-9-9-9-9-9-9-9-9---|
D|x--x--x--x--x--x--x--x--x--x--x--x--x--x--x-x-x-x-x-x-x-x-x-x-x-x---|
A|9--9--9--9--9--9--9--9--9--9--9--9--9--9--7-7-7-7-7-7-7-7-7-7-7-7---|
E|--------------------------------------------------------------------|

e|-------------------------------------------------------------------|
B|-------------------------------------------------------------------|
G|13-13-13-13-14-14-14-14------18-18-18-18-18--18-18-18-18-18--18-18-|
D|x--x--x--x--x--x--x--x-------x--x--x--x--x---x--x--x--x--x---x--x--|
A|11-11-11-11-12-12-12-12------16-16-16-16-16--16-16-16-16-16--16-16-|
E|-------------------------------------------------------------------|

e|-------------------------------------------------------------------|
B|----5------5------5------5-------5---------------------------------|
G|-------------------------------------------------------------------|
D|6-7---6-7----6-7----6-7-----6-7------------------------------------|
A|-------------------------------------------------------------------|
E|-------------------------------------------------------------------|


e|-------------------------------------------------------------------|
B|-------------------------------------------------------------------|
G|-------------------------------------------------------------------|
D|0--4--0--7---------------------------------------------------------|
A|0--4--0--7---------------------------------------------------------|
E|0--4--0--7---------------------------------------------------------|


guitar 2 plays behind the chords

e|-------------------------------------------------------------------|
B|---------------------------------10-9-5-7-9------------------------|
G|-------9-7-6--------------9-7-6------------------------------------|
D|6-7-6---------6-7--6-7-6-------------------------------------------|
A|-------------------------------------------------------------------|
E|-------------------------------------------------------------------|

e|--------------------------------------------------------------------|
B|--------------------------------------------------------------------|
G|--------------------------------------------------------------------|
D|00-4-0-1--0---------------------------------------------------------|
A|00-4-0-1--0---------------------------------------------------------|
E|00-4-0-1--0-0000-0000-0000-0000-------------------------------------|
pm            .... .... .... ....

every second time add this to the end
e|-------------------------------------------------------------------|
B|-------------------------------------------------------------------|
G|-------------------------------------------------------------------|
D|-------------------------------------------------------------------|
A|------5-------4----------------------------------------------------|
E|0-5-7---0-5-7------------------------------------------------------|

the song fades to finish.


| /  slide up
| \  slide down
| h  hammer-on
| p  pull-off
| ~  vibrato
| +  harmonic
| x  Mute note
=============================================================