Travail - Beaten Chords & Tabs

 

Beaten Chords & Tabs

Travail Chords & Tabs

Version: 4 Type: Tab

Beaten Tab

INTRO
e-----------------------------------------------------------|
B-----------------------------------------------------------|
G----5---5---5---4---4---4---0---0--------------------------|  X 2
D------------------------------------(2)slide(7)--7-----7---|
A--0---0---0---0---0---0---0---0---0----------------0-0-----|
D-----------------------------------------------------------|

e------------------------------------------------------------|
B------------------------------------------------------------|
G----5---5---7-5-4----4---4---4---7---7---(4)slide(5)5-----5-|
D------------------------------------------------------------|
A--0---0---0--------0---0---0---0---0---0--------------------|
D------------------------------------------------------0-0---|

e-----------------------------------------------------------|
B-----------------------------------------------------------|
G----5---5---7-5-4--4---4---4----0----0---------------------|
D---------------------------------------(2)slide(7) 7-----7-|
A--0---0---0------0---0---0---0----0------------------0-0---|
D-----------------------------------------------------------|

e-----------------------------------------------------------|
B-----------------------------------------------------------|
G----5---5---5---4---4---4---0---0--------------------------|
D------------------------------------(2)slide(7)--7-----7---|
A--0---0---0---0---0---0---0---0---0----------------0-0-----|
D-----------------------------------------------------------|

e------------------------------------------------|
B------------------------------------------------|
G----5---5---5---4---4---4---0---0---------------|
D------------------------------------------------|(2)slide(7)
A--0---0---0---0---0---0---0---0---0-------------|
D------------------------------------------------|

BRIDGE
e-----------------------------------|
B-----------------------------------|
G-----------------------------------|
D--0--0--0--2-3-2---0---0--0--0--5--|   X 4
A--0--0--0--2-3-2---0---0--0--0--5--|
D--0--0--0--2-3-2---0---0--0--0--5--|

CHORUS
e-----------------------------------------------------------------|
B-----------------------------------------------------------------|
G-----------------------------------------------------------------|
D--0--0--0--2-3-2--0---0--0--0--5-6--0-0-0-2-3-2-0-0-0-0-7-6  X 2-|
A--0--0--0--2-3-2--0---0--0--0--5-6--0-0-0-2-3-2-0-0-0-0-7-6------|
D--0--0--0--2-3-2--0---0--0--0--5-6--0-0-0-2-3-2-0-0-0-0-7-6------|

VERSE
e-----------------------------------------------------------------|
B-----------------------------------------------------------------|
G-----------------------------------------------------------------|
D--3---3--3(3)-----(2)---2--2-2-5---5--5(5)-----(7)---7--7-7  X 5-|
A--3---3-3(3)slide(2)---2--2-2-5---5--5(5)slide(7)---7--7-7------|
D--3---3-3(3)-----(2)---2--2-2-5---5--5(5)-----(7)---7--7-7------|

CHORUS
e-----------------------------------------------------------------|
B-----------------------------------------------------------------|
G-----------------------------------------------------------------|
D--0--0--0--2-3-2--0---0--0--0--5-6--0-0-0-2-3-2-0-0-0-0-7-6  X 2-|
A--0--0--0--2-3-2--0---0--0--0--5-6--0-0-0-2-3-2-0-0-0-0-7-6------|
D--0--0--0--2-3-2--0---0--0--0--5-6--0-0-0-2-3-2-0-0-0-0-7-6------|

e-----------------------------------------------------------------|
B-----------------------------------------------------------------|
G-----------------------------------------------------------------|
D--0--0--0--2-3-2--0---0--0--0--7-6--0-0-0-2-3-2-0-0-0-0-5-6  X 2-|
A--0--0--0--2-3-2--0---0--0--0--7-6--0-0-0-2-3-2-0-0-0-0-5-6------|
D--0--0--0--2-3-2--0---0--0--0--7-6--0-0-0-2-3-2-0-0-0-0-5-6------|
[ Tab from: https://www.guitartabs.cc/tabs/t/travail/beaten_tab_ver_4.html ]
VERSE
e-----------------------------------------------------------------|
B-----------------------------------------------------------------|
G-----------------------------------------------------------------|
D--3---3--3(3)-----(2)---2--2-2-5---5--5(5)-----(7)---7--7-7  X 5-|
A--3---3-3(3)slide(2)---2--2-2-5---5--5(5)slide(7)---7--7-7------|
D--3---3-3(3)-----(2)---2--2-2-5---5--5(5)-----(7)---7--7-7------|

BRIDGE
e-----------------------------------|
B-----------------------------------|
G-----------------------------------|
D--0--0--0--2-3-2---0---0--0--0--5--|   X 4
A--0--0--0--2-3-2---0---0--0--0--5--|
D--0--0--0--2-3-2---0---0--0--0--5--|

BREAK
e-----------------------------------------------------------|
B-----------------------------------------------------------|
G----5---5---7-5-4----4---4---4---7---7---9-7-5---5---5-----|
D-----------------------------------------------------------|
A--0---0---0--------0---0---0---0---0---0-------0---0-------|
D-----------------------------------------------------------|

e-----------------------------------------------------------|
B-----------------------------------------------------------|
G----5---5---7-5-4--4---4---4----0----0---------------------|
D---------------------------------------(2)slide(7) 7-----7-|
A--0---0---0------0---0---0---0----0------------------0-0---|
D-----------------------------------------------------------|

e-----------------------------------------------------------|
B-----------------------------------------------------------|
G----5---5---5---4---4---4---0---0--------------------------|
D------------------------------------(2)slide(7)--7-----7---|  X 2
A--0---0---0---0---0---0---0---0---0----------------0-0-----|
D-----------------------------------------------------------|

e-----------------------------------------------------------|
B-----------------------------------------------------------|
G----5---5---7-5-4----4---4---4---7---7---9-7-5---5---5-----|
D-----------------------------------------------------------|
A--0---0---0--------0---0---0---0---0---0-------0---0-------|
D-----------------------------------------------------------|

e-----------------------------------------------------------|
B-----------------------------------------------------------|
G----5---5---7-5-4--4---4---4----0----0---------------------|
D---------------------------------------(2)slide(7) 7-----7-|
A--0---0---0------0---0---0---0----0------------------0-0---|
D-----------------------------------------------------------|

CHORUS
e-----------------------------------------------------------------|
B-----------------------------------------------------------------|
G-----------------------------------------------------------------|
D--0--0--0--2-3-2--0---0--0--0--5-6--0-0-0-2-3-2-0-0-0-0-7-6  X 2-|
A--0--0--0--2-3-2--0---0--0--0--5-6--0-0-0-2-3-2-0-0-0-0-7-6------|
D--0--0--0--2-3-2--0---0--0--0--5-6--0-0-0-2-3-2-0-0-0-0-7-6------|

e-----------------------------------------------------------------|
B-----------------------------------------------------------------|
G-----------------------------------------------------------------|
D--0--0--0--2-3-2--0---0--0--0--7-6--0-0-0-2-3-2-0-0-0-0-5-6  X 2-|
A--0--0--0--2-3-2--0---0--0--0--7-6--0-0-0-2-3-2-0-0-0-0-5-6------|
D--0--0--0--2-3-2--0---0--0--0--7-6--0-0-0-2-3-2-0-0-0-0-5-6------|

VERSE
e-----------------------------------------------------------------|
B-----------------------------------------------------------------|
G-----------------------------------------------------------------|
D--3---3--3(3)-----(2)---2--2-2-5---5--5(5)-----(7)---7--7-7  X 5-|
A--3---3-3(3)slide(2)---2--2-2-5---5--5(5)slide(7)---7--7-7------|
D--3---3-3(3)-----(2)---2--2-2-5---5--5(5)-----(7)---7--7-7------|

OUTRO
e-----------------------------------|
B-----------------------------------|
G-----------------------------------|
D--0--0--0--2-3-2---0---0--0--0--5--|   X 4
A--0--0--0--2-3-2---0---0--0--0--5--|
D--0--0--0--2-3-2---0---0--0--0--5--|