Tracy Chapman - Fast Car Chords & Tabs

 

Fast Car Chords & Tabs

Tracy Chapman Chords & Tabs

Version: 7 Type: Tab

Fast Car Tab

   
This is my first tab so I hope this is pretty much it. Have fun with it!

----Tracy Chapman  Fast Car----

Play with a capo on the 2nd fret.


Intro:
E-|---------------------------------------------------------|
B-|----0---1---0---1-/-3---3-------8---7---7----------------|
G-|----0---0---0---0-------0---0---0---0---0---0------------|
D-|---------------------------------------------------------|
A-|---------------------------------------------------------|
E-|---------------------------------------------------------|

E-|---------------------------------------------------------|
B-|----0---1---0---1-/-3---3-------8---7---7----------------|
G-|----0---0---0---0-------0---0---0---0---0---0------------|
D-|---------------------------------------------------------|
A-|---------------------------------------------------------|
E-|---------------------------------------------------------|

E-|---------------------------------------------------------|
B-|----0---1---0---1-/-3---3-------8---10---8---7---8---7---|
G-|----0---0---0---0-----------0----------------------------|
D-|---------------------------------------------------------|
A-|---------------------------------------------------------|
E-|---------------------------------------------------------|

[ Tab from: https://www.guitartabs.cc/tabs/t/tracy_chapman/fast_car_tab_ver_7.html ]
   Verse 1:
E-|---------------------------------------------------------|
B-|----0---1---0---1-/-3---3-------8---7---7----------------|
G-|----0---0---0---0-------0---0---0---0---0---0------------|
D-|---------------------------------------------------------|
A-|---------------------------------------------------------|
E-|---------------------------------------------------------|
   Repeat this verse 23 times. Then the chorus:


Chorus:
|C      	|G		|Em		|D		|
|C	Em	|D		|C	Em	|D		|
|C	D	|


Verse 1: repeat 8 times


Chorus:
|C       	|G		|Em		|D		|
|C	Em	|D		|C	Em	|D		|
|C	D	|


Verse 1: repeat 8 times


Chorus:
|C    	        |G		|Em		|D		|
|C	Em	|D		|C	Em	|D		|
|C	D	|


Verse 1: repeat 7 times. Then the song ends with:
E-|----------------------------|
B-|----0---1---0---1-/-3-------|
G-|----0---0---0---0-----------|
D-|----------------------------|
A-|----------------------------|
E-|----------------------------|


/ stands for slide-up