Tool - Parabola Chords & Tabs

 

Parabola Chords & Tabs

Tool Chords & Tabs

Version: 2 Type: Bass Tab

Parabola Bass Tab

Tool
Parabola
_ass tab_

Legend

nh - natural harmonic
 ph - pinch harmonic

pm - palm mute
 x - muted string

h - hammer on
 p - pull off

// - slide down
 \\ - slide up

b - bend
 ~~ - vibrato

<7>- natural harmonic
 x/// - pick scrape (directions same as slide)

--------------------------------------------------------------------------------


This is off the Madison Square Garden video 10/01

g----------------------|
d--0h22h3p2-----------| x4
e--0---------3-0-------|
b----------------3-----|


g----------------------|
d--0h22h3p2-----------| x8
e--0---------3-0-------|
b----------------33----|


Distortion on
(these are octaves)
g--------------------------------------------|--------------------------------------|
d--5-5-/-7-7-7--/-9-9-/-11-11-10h11h12-------|--5-5-/-7-7-7--/-9-9-/-11-11-11/12----|
e--3-3-/-5-5-5--/-7-7-/-9--9-----------------|--3-3-/-5-5-5--/-7-7-/-9--9---9/10----|
b--------------------------------------------|--------------------------------------|

                                                                dist. off
g--------------------------------------------|---------------------------------|
d--5-5-/-7-7-7--/-9-9-/-11-11-10h11h12-------|--5-5-/-7-7-7--------------------|
e--3-3-/-5-5-5--/-7-7-/-9--9-----------------|--3-3-/-5-5-5--------------------|
b--------------------------------------------|-----------------1-1---10-8-3--|

                    x7
g---------------------|----------------|
d--0h22h3p2----------|----------------|
e--0---------3-0------|----------------|
b----------------333--|--3-5--3-5---3-|

                               x3
g--------------------------------|---------------------|
d--------------------------------|---------------------|
e----------5------------------2--|----------5----------|
b--0-3-3-3---5-0-5----5-3-5-5----|--0-3-3-3---5-0-5----|

alive!!!

g-------------------|
d-------------------|
e-------------------| x8
b--3h5-5--/8--5-3---|


Distortion on
(these are octaves)

g--------------------------------------------|--------------------------------------|
d--5-5-/-7-7-7--/-9-9-/-11-11-10h11h12-------|--5-5-/-7-7-7--/-9-9-/-11-11-11/12----|
e--3-3-/-5-5-5--/-7-7-/-9--9-----------------|--3-3-/-5-5-5--/-7-7-/-9--9---9/10----|
b--------------------------------------------|--------------------------------------|
[ Tab from: https://www.guitartabs.cc/tabs/t/tool/parabola_btab_ver_2.html ]
                                                                dist. off
g--------------------------------------------|---------------------------------|
d--5-5-/-7-7-7--/-9-9-/-11-11-10h11h12-------|--5-5-/-7-7-7--------------------|
e--3-3-/-5-5-5--/-7-7-/-9--9-----------------|--3-3-/-5-5-5--------------------|
b--------------------------------------------|-----------------1-1---10-8-3--|


                    x7
g---------------------|----------------|
d--0h22h3p2----------|----------------|
e--0---------3-0------|----------------|
b----------------333--|--3-5--3-5---3-|


                               x3
g--------------------------------|---------------------|
d--------------------------------|---------------------|
e----------5------------------2--|----------5----------|
b--0-3-3-3---5-0-5----5-3-5-5----|--0-3-3-3---5-0-5----|

*hold last note*

He Might have his whammy on here...not sure.

                           x4                                    x4
g------------------------19--|-------------------------------------|
d--16-17-16-19--16-17-16-----|--17-16-19--16h17-14-1219-19--17\---|
e----------------------------|-------------------------------------|
b----------------------------|-------------------------------------|

g-----------------------------|
d-----------------------------|
e-----------------5-5--3------| x4
b--5-5--3-xx-xx-----------0---|

g--------------------------|
d--------0-----------------| x4
e----5-3-----------3-------|
b--5-------3---5-3---0-3---|

g-------------------------------------------------------------------------------|
d--2p0----------------2p0-------------------2p0----------------2p0--------------|
e-----3p2p0--------------3p2p0-------5--3------3p2p0--------------3p2p0---------|
b-----------3--3--3------------3--5------------------3--3--3------------3--5----|

JC continues this while adam starts the other riff..

g--------------------------|
d--0h2-0h2-0h2-0h2p0-------|
e--------------------3--2-| x7
b--------------------------|

g------------------------------|
d------------------------------|
a-----0-5h7-0-10h12-0-5h7-0----|
d-3h5-----------------------3--|

d-------------------|
a-------------------|
e-------------------| x6
b--5-55555-3-33333--|

g-------------------------------------|
d-------------------------------------|
e----3h5----3h5-----------------------|
b--5------3-------3-5---3-5---3----5--|

*rest for 4 bars*

g-----------------------|
d-----------------------|
e-----------------------| x3
b----------------3-3-0--|

*rest and come in near end with guitar*

g-----------------------|
d--2-----0--2-----------|
e-----------------------|
b-----------------------|