Tommy Emmanuel - Stevies Blues Chords & Tabs

 

Stevies Blues Chords & Tabs

Tommy Emmanuel Chords & Tabs

Version: 4 Type: Tab

Stevies Blues Tab

   
Stevies Blues by Tommy Emmanuel
Tabbed by homer26791

E|------------5--3/4--0-------------------------|
G|------3--5-------------0----------------------|
B|--2/4--------------------3p2--0---------------|
D|---------------------------------2b-----------|
A|----------------------------------------------|
E|----------------------------------------------|
Play that very fast

strum the second part
   D U  D    U   D    D    D
E|----------------------------------------------|
G|-----------2---x------------------------------|
B|-1-1-------2---x---------1--------------------|
D|-----------2---x------------------------------|      
A|-2-2---------------------2--------------------|
E|------3b------------3b------------------------|

E|------------5--3/4--0-------------------------|
G|------3--5-------------0----------------------|
B|--2/4--------------------3p2--0---------------|
D|---------------------------------2b-----------|
A|----------------------------------------------|
E|----------------------------------------------|
[ Tab from: https://www.guitartabs.cc/tabs/t/tommy_emmanuel/stevies_blues_tab_ver_4.html ]
   D D  D    D   D    D    D
E|----------------------------------------------|
G|-----------2---x------------------------------|
B|-1-1-------2---x---------1--------------------|
D|-----------2---x------------------------------|
A|-2-2---------------------2--------------------|
E|------3b------------3b------------------------|

E|------------5--3/4--0-------------------------|
G|------3--5-------------0----------------------|
B|--2/4--------------------3p2--0---------------|
D|---------------------------------2b-----------|
A|----------------------------------------------|
E|----------------------------------------------|
   D  D         D     U
E--------x-------x-----0------------------------|
B--2-2---x-------x-----0------------------------|
G--2-2---x-------x-----0------------------------|
D--2-2-----------4-----0------------------------|
A------3p0-------5-----3p0----------------------|
E-----------------------------------------------|

e|--3b3b-3b-------------3p-----------5----|
B|--3b-3b-3b------------------------3-3---|
G|------------2h3p2p-----2----------3---3--|
D|-x--x--x---------------1---2-0-2---------|
A|-x--x--x------------2h-2---2-------------|
E|-x--x--x----------0----------------------|
  (x)Mute with thumb
		     D		 D   	
e|----------------------------------------|
B|------------------2---------------------|
G|--2h3p2p-----------2-----------1---------|
D|----------2-----2--2-----------2---------|
A|----------------------0--------2---------|
E|-------------3b-----------3b-------------|

The rest of the song is improvised 

 /  slide
 h  hammer on
 p  pull off
(x) mute
 D  strum down
 U  strum up

im 95% sure thats right
If you have any questions just ask me at homer26791 or aaronq@quartly.net