Tim Hughes - Blessed Be Your Name Chords & Tabs

 

Blessed Be Your Name Chords & Tabs

Tim Hughes Chords & Tabs

Version: 1 Type: Tab

Blessed Be Your Name Tab

   
Artist: Tim Hughes
Song: Blessed Be Yor Name

I've updated it a few times to pake it perfect, this is a 100% correct tab of this song. 
me know what you think!
 - palm mute

 "Intro"    (every strum is a eighth note for 4 beats per measure.)
|--------------------|
|--2-2-2-2-2-2-2-2---|
|--2-2-2-2-2-2-2-2---|
|--2-2-2-2-2-2-2-2---| 2x
|--------------------|
|--------------------|
             
(  1 & 2 & 3 & 4 & ) - Counting

|--------------------|
|--------------------|
|--2-2-2-2-2-2-2-2---|
|--2-2-2-2-2-2-2-2---| 2x
|--------------------|
|--------------------|
             
(  1 & 2 & 3 & 4 & )
"Verse"
|--------------------|
|--------------------|
|--2-2-2-2-2-2-2-2---|
|--2-2-2-2-2-2-2-2---| 1x
|--------------------|
|--------------------|
             
(  1 & 2 & 3 & 4 & )

|--------------------|
|--------------------|
|--1-1-1-1-1-1-1-1---|
|--2-2-2-2-2-2-2-2---| 1x
|--2-2-2-2-2-2-2-2---|
|--------------------|
             
(  1 & 2 & 3 & 4 & )

|--2-2-2-2-2-2-2-2---|
|--2-2-2-2-2-2-2-2---|
|--2-2-2-2-2-2-2-2---|
|--4-4-4-4-4-4-4-4---| 1x
|--4-4-4-4-4-4-4-4---|
|--------------------|
             
(  1 & 2 & 3 & 4 & )

|--2-2-2-2-2-2-2-2---|
|--3-3-3-3-3-3-3-3---|
|--2-2-2-2-2-2-2-2---|
|--------------------| 1x
|--------------------|
|--------------------|
             
(  1 & 2 & 3 & 4 & )
[ Tab from: https://www.guitartabs.cc/tabs/t/tim_hughes/blessed_be_your_name_tab.html ]
2nd ending played at (*)   = play this right before chorus, same as before  just without the palm mutes.
|--2-2-2-2-2-2-2-2---|
|--3-3-3-3-3-3-3-3---|
|--2-2-2-2-2-2-2-2---|
|--------------------| 1x
|--------------------|
|--------------------|
(  1 & 2 & 3 & 4 & )


"Chorus"
               A           E                     F#m7            D
Blesses Be The Name Of The Lord, Blessed Be Your Name

               A           E                     F#m7 E   D
Blessed Be The Name Of The Lord, Blessed Be Your Glorious Name

"Bridge"
    A             E
You Give and Take Away
    F#m7          D
You Give and Take Away
   A                    E
My Heart Will Choose to Say
     F#m7            D
Lord Blessed Be Your Name

If you wana rock it out even harder here are the powerchord you can play for distortion setting:
  A      E    F#m7     D
|---|  |---|  |---|  |---|
|---|  |---|  |---|  |---|
|-2-|  |---|  |---|  |-7-|  (and if youe like me, i naturally slide from my
|-2-|  |-2-|  |-4-|  |-7-|    "D" to my "A" in my powerchords for a little
|-0-|  |-2-|  |-4-|  |-5-|    sound afects)
|---|  |-0-|  |-2-|  |---|

Intro - 1x
Verse - 2x
Chorus - 1x
Verse - 2x
Chorus - 2x
Bridge - 2x
Chorus - 1x        (End on "A" Chord)

That's it, This is one of my favorite worship song and i hope you enjoy it. Rock on!