Tim Christensen - Love Is A Matter Chords & Tabs

 

Love Is A Matter Chords & Tabs

Tim Christensen Chords & Tabs

Version: 1 Type: Bass Tab

Love Is A Matter Bass Tab

Tim Christensen
Love Is A Matter Of
Bass 

~= let ring

Intro:
G|--------------------------------------|
D|--------------------------------------|
A|--------------------------------------|
E|--------------------------------------|

Vers:x2
G|---------------------------------------------------|
D|---------3-------------5-------3-------5-------5---| 
A|--5-----------------7------5-------7---------------|  
G|---------------------------------------------5-----|

Omk:x2
G|--------------------------|
D|--------------------------|
A|--5~----------------------|
E|--------------------------|

i cant let you

G|--------|-4------------------|
D|-4~-----|----------5---5-----|
A|--------|------7-----------5-|
E|--------|--------------------|
[ Tab from: https://www.guitartabs.cc/tabs/t/tim_christensen/love_is_a_matter_btab.html ]
Vers:x2
G|---------------------------------------------------|
D|---------3-------------5-------3-------5-------5---| 
A|--5-----------------7------5-------7---------------|  
G|---------------------------------------------5-----|

Omk:x2
G|--------------------------|
D|--------------------------|
A|--5~----------------------|
E|--------------------------|




i cant let you


G|--------|-4------------------|
D|-4~-----|----------5---5-----|
A|--------|------7-----------5-|
E|--------|--------------------|

Vers:x2
G|---------------------------------------------------|
D|---------3-------------5-------3-------5-------5---| 
A|--5-----------------7------5-------7---------------|  
G|---------------------------------------------5-----|


Omk:x2
G|-------------------------|
D|-------------------------|
A|--5~---------------------|
E|-------------------------|

i cant let you

G|--------|-4-----------------|
D|-4~-----|----------5---5----|
A|--------|------7-----------5|
E|--------|-------------------|