Tim Christensen - Barbwired Babys Dream Chords & Tabs

 

Barbwired Babys Dream Chords & Tabs

Tim Christensen Chords & Tabs

Version: 1 Type: Tab

Barbwired Babys Dream Tab

   
    ______________________________________________________
   / Tim Christensen                                     /
  / Barbedwired Baby's Dream (acoustic)                 /
 / Live at Abbey Road Studios: Extra Acoustic Session  /
/_____________________________________________________/

I always loved this version, so I finally made a tab of it. Enjoy :D


(Capo on 3rd fret)

 Intro:
  Am                Am                Am                Am
|-----0---0-0-0---|-----0---0-0-0---|-----0-----0-0---|-----0---0-0-0---|
|-----1---1-1-1---|-----1---1-1-1---|-----1-----1-1---|-----1---1-1-1---|
|-----2---2-2-2---|-----2---2-2-2---|-----2-----2-2---|-----2---2-2-2---|
|-----2---2-2-2---|-----2---2-2-2---|-----2-----2-2---|-----2---2-2-2---|
|-0---------------|-0---------------|-0---------------|-0---------------|
|-----------------|-----------------|-----------------|-----------------|


 Verse:
    Am          Fmaj9/A                 H(11)            E7               4x
||------0---0-0-0---|-----0---0-0-0---|-----0---0-0-0---|-----0---0-0-0----||
||o-----1---1-1-1---|-----1---1-1-1---|-----3---3-3-3---|-----3---3-3-3---o||
||------2---2-2-0---|-----0---0-0-0---|-----2---2-2-2---|-----1---1-1-1----||
||------2---2-2-3---|-----3---3-3-3---|-----3---3-3-3---|-----2---2-2-2----||
||o-0---------------|-0---------------|-2---------------|-----2---2-2-2---o||
||------------------|-----------------|-----------------|-0----------------||



 Chorus:
  Fmaj7             Fmaj7   -/e       Dm                Em
|-----0---0-0-0---|-----0-------0---|-----1-----1-1---|-----0-----0-0---|
|-----1---1-1-1---|-----1-------1---|-----3-----3-3---|-----0-----0-0---|
|-----2---2-2-2---|-----2-------2---|-----2-----2-2---|-----0-----0-0---|
|-----3---3-3-3---|-----3-------3---|-0---------------|-----2-----2-2---|
|-----3---3-3-3---|-----3-------3---|-----------------|-----2-----2-2---|
|-1---------------|-1-------0-------|-----------------|-0---------------|


  Am                    Asus2 Asus4       Am            Am          Fmaj7/A
|-----0---0-0-0---|-----0---0-0-0---|-----0-----0-0---|-----0-----0-0---|
|-----1---1-1-1---|-----0---0-3-3---|-----0h1---1-1---|-----1-----1-1---|
|-----2---2-2-2---|-----2---2-2-2---|-----2-----2-2---|-----2-----2-0---|
|-----2---2-2-2---|-----2---2-2-2---|-----2-----2-2---|-----2-----2-3---|
|-0---------------|-0---------------|-0-------0-------|-0---------------|
|-----------------|-----------------|-----------------|-----------------|


  Fmaj7             Fmaj7   -/e       Dm                Dm          G7/D
|-----0---0-0-0---|-----0-------0---|-----1-----1-1---|-----1-----1-1---|
|-----1---1-1-1---|-----1-------1---|-----3-----3-3---|-----3-----3-0---|
|-----2---2-2-2---|-----2-------2---|-----2-----2-2---|-----2-----2-0---|
|-----3---3-3-3---|-----3-------3---|-0---------------|-0---------------|
|-----3---3-3-3---|-----3-------3---|-----------------|-----------------|
|-1---------------|-1-------0-------|-----------------|-----------------|


  C           Csus2 E7                Fmaj7             Fmaj7
|-----0---0-0-----|-----0---0---0---|-----0-----0-0---|-----0---0-0-0---|
|-----1---1-1-1---|-----3---3---3---|-----1-----1-1---|-----1---1-1-1---|
|-----0---0-0-0---|-----1---1---1---|-----2-----2-2---|-----2---2-2-2---|
|-----2---2-2-0---|-----2---2---2---|-----3-----3-3---|-----3---3-3-3---|
|-3---------------|-----2---2---2---|-----3-----3-3---|-----3---3-3-3---|
|-----------------|-0---------------|-1---------------|-1---------------|

[ Tab from: https://www.guitartabs.cc/tabs/t/tim_christensen/barbwired_babys_dream_tab.html ]
  C           Csus2 E7
|-----0---0-0-----|-----0---0---0---|
|-----1---1-1-1---|-----3---3---3---|
|-----0---0-0-0---|-----1---1---1---|
|-----2---2-2-0---|-----2---2---2---|
|-3---------------|-----2---2---2---|
|-----------------|-0---------------|



 Interlude:
  Am                Am          Asus2 Am                Am
|-----0-----0-0---|-----0---0-0-0---|-----0-----0-0---|-----0---0-0-0---|
|-----1-----1-1---|-----1---1-1-0---|-----1-----1-1---|-----1---1-1-1---|
|-----2-----2-2---|-----2---2-2-2---|-----2-----2-2---|-----2---2-2-2---|
|-----2-----2-2---|-----2---2-2-2---|-----2-----2-2---|-----2---2-2-2---|
|-0---------------|-0---------------|-0---------------|-0---------------|
|-----------------|-----------------|-----------------|-----------------|



 Verse:  similar to previous

 Chorus: similar to previous



 Guitar Solo:
    Am                -/f     -/e       H7/d#             -/H     -/f#
||------0---0-0-0---|-----0-------0---|-----2---2-2-2---|-----2-------2---|
||o-----1---1-1-1---|-----1-------1---|-----0---0-0-0---|-----0-------0---|
||------2---2-2-2---|-----2-------2---|-----2---2-2-2---|-----2-------2---|
||------2---2-2-2---|-3-------2-------|-1---------------|-----------------|
||o-0---------------|-----------------|-----------------|-2---------------|
||------------------|-----------------|-----------------|---------2-------|

  E7/f              -/C     -/H         Am                Am          Fmaj9/A
|-----0-----0-0---|-----0-------0----||-----0-----0-0---|-----0---0---0---|
|-----0-----0-0---|-----0-------0---o||-----1-----1-1---|-----1---1---1---|
|-----1-----1-1---|-----1-------1----||-----2-----2-2---|-----2---2---0---|
|-----0-----0-0---|-----0-------0----||-----2-----2-2---|-----2---2---3---|
|-----------------|-3-------2-------o||-0---------------|-0---------------|
|-1---------------|------------------||-----------------|-----------------|



 Chorus: similar to previous, with a little variation in bar no.8:

  Am      -/g
|-----0-------0---|
|-----1-------1---|
|-----2-------2---|
|-----2-------2---|
|-0---------------|
|---------3-------|


Play the last 4 bars 2 times more, then end the song on this:
                   rit................
  Am                                  Am
|-----0-----0-0---|-0---0---0---0---|-0^--------------|-0---------------|
|-----1-----1-1---|-0---1---3---0---|-0^h1------------|-1---------------|
|-----2-----2-2---|-2---2---2---2---|-2^--------------|-2---------------|
|-----2-----2-2---|-2---2---2---2---|-2^--------------|-2---------------|
|-0---------------|-----------------|-0^--------------|-0---------------|
|-----------------|-----------------|-----------------|-----------------|




 LYRICS
**********
Lost inside a dream
if you know what I mean
I am runnin' round in circles
Misery was here
acted so sincere
now I'm runnin' round in circles with a friend

I can't find you,
where are my barbedwired baby?
Are you hidin'?
Please tell me what's behind the screen
Is it a barbedwired baby's dream? 
 
Sittin' all the time
tryin' to make it rhyme
but I'm stoned for a moment
Diggin' in the moon
with a silver spoon
Yes, I'm stoned for a moment with a friend

I can't find you,
where are my barbedwired baby?
Are you hidin'?
Please tell me what's behind the screen
Is it a barbedwired baby's dream? 

I can't find you,
where are my barbedwired baby?
Are you hidin'?
If the objection's overruled,
why do I always play the fool?
Please tell me what's behind the screen
Is it a barbedwired baby's dream?


+--------------------------------------------------------------------------+
Jon Sebastian Frederiksen - 8th /August /10
Just mail me at Maitinin@gmail.com with questions, comments and corrections!