Through The Eyes Of The Dead - Bringer Of Truth Chords & Tabs

 

Bringer Of Truth Chords & Tabs

Through The Eyes Of The Dead Chords & Tabs

Version: 1 Type: Bass Tab

Bringer Of Truth Bass Tab

   
Band  Through the Eyes of the Dead
Album  Bloodlust
Song  Bringer of Truth
Transcribed by  Bryan H. & Ty B.

Gtr I (B F# B E) - 'Bass'

Tuning  Dropped B

 2/4         4/4
  Gtr I
|---------||-----------------------------------||
|---------||o---------------------------------o||
|---------||o-----7---8-------4---7-------5---o||
|-8-7-1-1-||--0-0---0---0-0-0---0---0-0-0---0--||


|----------------------------------|
|----------------------------------|
|-----5-5-4-4-5-5-----8-8-7-7-5-5--|
|-8-8-------------7-7--------------|


||-----------------------------------||
||o---------------------------------o||
||o-----7---8-------4---7-------5---o||
||--0-0---0---0-0-0---0---0-0-0---0--||


|-------------------------||-----------------------------------||
|-------------------------||o---------------------------------o||
|-----5-5-4-4-5-5-1-0-----||o-----7---8-------4---7-------5---o||
|-8-8-----------------1-1-||--0-0---0---0-0-0---0---0-0-0---0--||


|---------------------------------|
|---------------------------------|
|-----5-5-4-4-5-5-----8-8-7-7-5-5-|
|-8-8-------------7-7-------------|


||-----------------------------------||--------------------------|
||o---------------------------------o||--------------------------|
||o-----7---8-------4---7-------5---o||-----5-5-4-4-5-5-1-0------|
||--0-0---0---0-0-0---0---0-0-0---0--||-8-8-----------------1-1--|


                              1.
||--------------------------|----------------------------------||
||o-------------------------|---------------------------------o||
||o-------------------------|-7-7-7-7-7-7-5-5-4-4-4-4-7-7-7-7-o||
||--0-0-0-0-0-0-0-0-0-0-0-0-|----------------------------------||


  2.
|-------------------------------------|
|-------------------------------------|
|-------------5-5---------------------|
|-7-7-7-7-7-7-----11-11-11-11-8-8-8-8-|


                              1.
||--------------------------|----------------------------------||
||o-------------------------|---------------------------------o||
||o-------------------------|-7-7-7-7-7-7-5-5-4-4-4-4-7-7-7-7-o||
||--0-0-0-0-0-0-0-0-0-0-0-0-|----------------------------------||


  2.
|-------------------------------------|
|-------------------------------------|
|-------------5-5---------------------|
|-7-7-7-7-7-7-----11-11-11-11-8-8-8-8-|


||-----------------------------------||
||o---------------------------------o||
||o-----7---8-------4---7-------5---o||
||--0-0---0---0-0-0---0---0-0-0---0--||


|---------------------------------||-----------------------------------||
|---------------------------------||o---------------------------------o||
|-----5-5-4-4-5-5-----8-8-7-7-5-5-||o-----7---8-------4---7-------5---o||
|-8-8-------------7-7-------------||--0-0---0---0-0-0---0---0-0-0---0--||


|---------------------------------|
|---------------------------------|
|-----5-5-4-4-5-5-----8-8-7-7-5-5-|
|-8-8-------------7-7-------------|


||-----------------------------------||--------------------------|
||o---------------------------------o||--------------------------|
||o-----7---8-------4---7-------5---o||-----5-5-4-4-5-5-1-0------|
||--0-0---0---0-0-0---0---0-0-0---0--||-8-8-----------------1-1--|


||-----------------------------------||---------------------------------|
||o---------------------------------o||---------------------------------|
||o-----7---8-------4---7-------5---o||-----5-5-4-4-5-5-----8-8-7-7-5-5-|
||--0-0---0---0-0-0---0---0-0-0---0--||-8-8-------------7-7-------------|


||------------------------------------||-------------------------|
||o----------------------------------o||-------------------------|
||o-----7---8-------4---7-------5----o||-----5-5-4-4-5-5-1-0-----|
||--0-0---0---0-0-0---0---0-0-0---0---||-8-8-----------------1-1-|


                              1.
||--------------------------|----------------------------------||
||o-------------------------|---------------------------------o||
||o-------------------------|-7-7-7-7-7-7-5-5-4-4-4-4-7-7-7-7-o||
||--0-0-0-0-0-0-0-0-0-0-0-0-|----------------------------------||


  2.
|-------------------------------------|
|-------------------------------------|
|-------------5-5---------------------|
|-7-7-7-7-7-7-----11-11-11-11-8-8-8-8-|

[ Tab from: https://www.guitartabs.cc/tabs/t/through_the_eyes_of_the_dead/bringer_of_truth_btab.html ]
                              1.
||--------------------------|----------------------------------||
||o-------------------------|---------------------------------o||
||o-------------------------|-7-7-7-7-7-7-5-5-4-4-4-4-7-7-7-7-o||
||--0-0-0-0-0-0-0-0-0-0-0-0-|----------------------------------||


  2.
|-------------------------------------|
|-------------------------------------|
|-------------5-5---------------------|
|-7-7-7-7-7-7-----11-11-11-11-8-8-8-8-|


||----------------------------------|---------------------------------|
||o---------------------------------|---------------------7-7---------|
||o-------------7-7-8-8-8-8---------|-------------7-7-8-8-----8-8-8-8-|
||--0-0-0-0-0-0-------------7-7-7-7-|-0-0-0-0-0-0---------------------|


                                                                        3x
|---------------------------------|-------------------------------------||
|---------------------------------|------------------------------------o||
|-------------7-7-8-8-8-8---------|-----8-8-7-7-----7-7-8-8-----7-7----o||
|-0-0-0-0-0-0-------------7-7-7-7-|-8-8---------7-7---------5-5---------||


|----------|----------|----------|------------||----------------|
|----------|----------|----------|------------||o---------------|
|----------|----------|----------|------------||o-8------7------|
|-0--------|-7--------|-3--------|-8----7--5--||----7------7----|


|----------------------|---------------|-----------------------------||
|----------------------|---------------|----------------------------o||
|-8------8-5---8-7-5-4-|-8------7------|-8--------8-5---8-10-8-7----o||
|---7--------7---------|---7------7----|---7----------7--------------||


||--------------|-----------------------|
||o-------------|-----------------------|
||o-------------|-------8-----8-----7---|
||--0-0---0-0---|-0-0-----0-0---0-0---0-|


                                         3x
|-------------|--------------------------||
|-------------|-------------------------o||
|-------------|-------10-----10-----8---o||
|-0-0---0-0---|-0-0------0-0----0-0---0--||


||----------------------------------|---------------------------------|
||o---------------------------------|---------------------7-7---------|
||o-------------7-7-8-8-8-8---------|-------------7-7-8-8-----8-8-8-8-|
||--0-0-0-0-0-0-------------7-7-7-7-|-0-0-0-0-0-0---------------------|


|---------------------------------|-------------------------------------||
|---------------------------------|------------------------------------o||
|-------------7-7-8-8-8-8---------|-----8-8-7-7-----7-7-8-8-----7-7----o||
|-0-0-0-0-0-0-------------7-7-7-7-|-8-8---------7-7---------5-5---------||


||-------|------|------|---------||---------|--------|
||o------|------|------|--------o||---------|--------|
||o------|------|------|--------o||---------|--------|
||--0----|-7----|-3----|-8--7-5--||-0-------|-(0)----|


                                                                        4x
||----------------------------------|-----------------------------------||
||o---------------------------------|----------------------------------o||
||o-5-5-----------------------------|----------------------------------o||
||------8-8-5-5-7-7-7-7-8-8-5-5-7-7-|-7-7-8-8-5-5-7-7-4-4-8-8-5-5-7-7---||


 2/4
                                4x
|------||-----------------------||----|
|------||o---------------------o||----|
|------||o---------------------o||----|
|-0----||--0-0-0-0-0-0-0-0-0-0--||----|


Tablature Legend
----------------
 h   - hammer-on
 p   - pull-off
 b   - bend
 pb  - pre-bend
 r   - bend release (if no number after the r, then release immediately)
 /\  - slide into or out of (from/to "nowhere")
 s   - legato slide
 S   - shift slide
  - natural harmonic
[n]  - artificial harmonic
n(n) - tapped harmonic
 ~   - vibrato
 tr  - trill
 T   - tap
 TP  - trem. picking
 PM  - palm muting
\n/  - tremolo bar dip; n = amount to dip
 \n  - tremolo bar down
 n/  - tremolo bar up
/n\  - tremolo bar inverted dip
 =   - hold bend; also acts as connecting device for hammers/pulls
 <>  - volume swell (louder/softer)
 x   - on rhythm slash represents muted slash
 o   - on rhythm slash represents single note slash

Misc Legend
-----------
 |  - bar
||  - double bar
||o - repeat start
o|| - repeat end
*|  - double bar (ending)
 :  - bar (freetime)
 $  - Segno
 &  - Coda
Tempo markers -  = BPM(8/16=s8/s16), where s8 = swing 8ths, s16 = swing 16ths