Thrice - Firebreather Chords & Tabs

 

Firebreather Chords & Tabs

Thrice Chords & Tabs

Version: 3 Type: Tab

Firebreather Tab

   
Firebreather
Artist: Thrice
Album: The Alchemy Index, Disk 1: Fire
Tuning: Drop A (Low to High: A E A D F# B)

Main Riff
  Gtrs I, II                     x2
||------------|------------------||
||------------|o----------------o||
||------------|------------------||
||-0-2--0-0-2-|--0-2-2-0-0-2--0--||
||-0-2--0-0-2-|o-0-2-2-0-0-2--0-o||
||-0-2--0-0-2-|--0-2-2-0-0-2--0--||

Verse
  Bass       Gtrs I, II                       x2
||-----|----|----------------|----------------||
||o----|----|----------------|---------------o||
||-----|----|----------------|----------------||
||-----|----|----------------|----------------||
||o----|----|-0-12-0/10-9--5-|---5-7--4--4-5-o||
||-----|----|-0-12-0/10-9--5-|---5-7--4--4-5--||

Chorus
  Gtrs I, II
||------------|------------|----------------|----------------|
||------------|------------|----------------|----------------|
||------------|------------|----------------|----------------|
||-9--9--9--9-|-9--9--9--9-|-10--10--10--10-|-10--10--10--10-|
||-9--9--9--9-|-9--9--9--9-|-10--10--10--10-|-10--10--10--10-|
||-9--9--9--9-|-9--9--9--9-|-10--10--10--10-|-10--10--10--10-|

|------------|------------|----------------|-------------||
|------------|------------|----------------|-------------||
|------------|------------|----------------|-------------||
|-9--9--9--9-|-9--9--9--9-|-10--10--10--10-|-0--7---5--7-||
|-9--9--9--9-|-9--9--9--9-|-10--10--10--10-|-0--7---5--7-||
|-9--9--9--9-|-9--9--9--9-|-10--10--10--10-|-0--7---5--7-||

Repeat main riff
No guitar in second verse
Repeat Chorus x2

Breakdown, part 1
  Gtrs I, II
||------------|--------------|------------|--------------|
||------------|--------------|------------|--------------|
||------------|--------------|------------|--------------|
||-5--5--5--5-|-5--5--5-0--0-|-5--5--5--5-|-5--5--5-0--0-|
||-5--5--5--5-|-5--5--5-0--0-|-5--5--5--5-|-5--5--5-0--0-|
||-5--5--5--5-|-5--5--5-0--0-|-5--5--5--5-|-5--5--5-0--0-|

                                                        x2
|------------|--------------|------------|--------------| |------------|--------------||
|------------|--------------|------------|--------------| |------------|--------------||
|------------|--------------|------------|--------------| |------------|--------------||
|-2--2--2--2-|-2--2--2-0--0-|-2--2--2--2-|-2--2--2-0--0-| |-2--2--2--2-|-2--2--2-0--0-||
|-2--2--2--2-|-2--2--2-0--0-|-2--2--2--2-|-2--2--2-0--0-| |-2--2--2--2-|-2--2--2-0--0-||
|-2--2--2--2-|-2--2--2-0--0-|-2--2--2--2-|-2--2--2-0--0-| |-2--2--2--2-|-2--2--2-0--0-||
[ Tab from: https://www.guitartabs.cc/tabs/t/thrice/firebreather_tab_ver_3.html ]
Breakdown, part 2
  Gtr I
||-------------|--------------|-------------|--------------|-------------|
||-------------|--------------|-------------|--------------|-------------|
||-------------|--------------|-------------|--------------|-------------|
||-5--5--5--5--|-5--5--5-0--0-|-5--5--5--5--|-5--5--5-0--0-|-2--2--2--2--|
||-5--5--5--5--|-5--5--5-0--0-|-5--5--5--5--|-5--5--5-0--0-|-2--2--2--2--|
||-5--5--5--5--|-5--5--5-0--0-|-5--5--5--5--|-5--5--5-0--0-|-2--2--2--2--|
|
|  Gtr II
||----------15-|----15-14-----|----------15-|----15-14^()-|-14-12----12-|
||-12-15-12----|----------15--|-12-15-12----|--------------|-------12----|
||-------------|--------------|-------------|--------------|-------------|
||-------------|--------------|-------------|--------------|-------------|
||-------------|--------------|-------------|--------------|-------------|
||-------------|--------------|-------------|--------------|-------------|
|--------------|-------------|--------------|-------------|--------------|
|--------------|-------------|--------------|-------------|--------------|
|--------------|-------------|--------------|-------------|--------------|
|-2--2--2-0--0-|-2--2--2--2--|-2--2--2-0--0-|-5--5--5--5--|-5--5--5-0--0-|
|-2--2--2-0--0-|-2--2--2--2--|-2--2--2-0--0-|-5--5--5--5--|-5--5--5-0--0-|
|-2--2--2-0--0-|-2--2--2--2--|-2--2--2-0--0-|-5--5--5--5--|-5--5--5-0--0-|
|
|Gtr II
|--------------|-14-12----12-|----12-10-----|----------15-|----15-14-----|
|--------------|-------12----|--------------|-12-15-12----|----------15--|
|--------------|-------------|--------------|-------------|--------------|
|--------------|-------------|--------------|-------------|--------------|
|--------------|-------------|--------------|-------------|--------------|
|----(rest)----|-------------|--------------|-------------|--------------|

  Gtr I
|-------------|--------------|-------------|--------------| |-------------|--------------||
|-------------|--------------|-------------|--------------| |-------------|--------------||
|-------------|--------------|-------------|--------------| |-------------|--------------||
|-5--5--5--5--|-5--5--5-0--0-|-2--2--2--2--|-2--2--2-0--0-| |-2--2--2--2--|-2--2--2-0--0-||
|-5--5--5--5--|-5--5--5-0--0-|-2--2--2--2--|-2--2--2-0--0-| |-2--2--2--2--|-2--2--2-0--0-||
|-5--5--5--5--|-5--5--5-0--0-|-2--2--2--2--|-2--2--2-0--0-| |-2--2--2--2--|-2--2--2-0--0-||
|
|  Gtr II
|----------15-|----15-14^()-|-14-12----12-|--------------| |-14-12----12-|----12-10-----||
|-12-15-12----|--------------|-------12----|--------------| |-------12----|--------------||
|-------------|--------------|-------------|--------------| |-------------|--------------||
|-------------|--------------|-------------|--------------| |-------------|--------------||
|-------------|--------------|-------------|--------------| |-------------|--------------||
|-------------|--------------|-------------|----(rest)----| |-------------|--------------||

Outro
  Gtr I
||--------------|--------------|-------------|--------------|-------------|
||o-------------|--------------|-------------|--------------|-------------|
||--------------|--------------|-------------|--------------|-------------|
||--5--5--5--5--|-5--5--5-0--0-|-5--5--5--5--|-5--5--5-0--0-|-2--2--2--2--|
||o-5--5--5--5--|-5--5--5-0--0-|-5--5--5--5--|-5--5--5-0--0-|-2--2--2--2--|
||--5--5--5--5--|-5--5--5-0--0-|-5--5--5--5--|-5--5--5-0--0-|-2--2--2--2--|
|
|  Gtr II
||--------------|--------------|-------------|--------------|-------------|
||o-12----10----|-10/15--------|-12----10----|-10/15--------|-8-----7-----|
||--------------|--------------|-------------|--------------|-------------|
||--------------|--------------|-------------|--------------|-------------|
||o-------------|--------------|-------------|--------------|-------------|
||--------------|--------------|-------------|--------------|-------------|

                                             x2 (then repeat x2 fading out)
|--------------|-------------|---------------||
|--------------|-------------|--------------o||
|--------------|-------------|---------------||
|-2--2--2-0--0-|-2--2--2--2--|-2--2--2-0--0--||
|-2--2--2-0--0-|-2--2--2--2--|-2--2--2-0--0-o||
|-2--2--2-0--0-|-2--2--2--2--|-2--2--2-0--0--||
|
|Gtr II
|--------------|-------------|---------------||
|-7/-12--------|-8-----7-----|-7/-12--------o||
|--------------|-------------|---------------||
|--------------|-------------|---------------||
|--------------|-------------|--------------o||
|--------------|-------------|---------------||