The Wombats - Moving To New York Chords & Tabs

 

Moving To New York Chords & Tabs

The Wombats Chords & Tabs

Version: 1 Type: Bass Tab

Moving To New York Bass Tab

   
Ahoy hoy!
First tab in a while, and I'm loving this band at the mo, and their
new single is awesome, speshully that bassline in verse, sooo I gave it
a shot to work it out =P not perfect tabbing but what hey...
(P.s this is the new album version, not the old demo version)

The Wombats - Moving To New York

0:11
G-----|
D-----|
A----|
E10/-|
I couldn't work out the exact slide at that beginning, so I just do any
slide like this lol sounds ok =]

Intro 0:12
G--------------------------------------------------------------|
D--------------------------------------------------------------|
A--5--5--5-5-5-------------3-3-3-3-3-3------2-2--3-3--4-4------| X2
E--------------5-5-5-5-5-5--------------3-3--------------------|

Verse 0:24
G------------------------------7-6-5-5-5-5-5-5------------------------|
D--------------5-6-7-7-7-7-7-7-----------------3-4-5-5-5-5-5-5--------|
A--5-5-5-5-5-5-------------------------------------------------0-3-4--| X3
E---------------------------------------------------------------------|

G--------------------------------------------------------------------------|
D--------------5-6-7-7-7-7-7-7---------------------------------------------|
A--5-5-5-5-5-5-----------------5-4-3-3-3-3-3-3-----------------------------|
E----------------------------------------------1-2-3-3-3-3-3-3-------------|

Chorus 0:47
G--------------------------------------------------------------------------|
D--------------------------------------------------------------------------|
A--------------3-3-3-3-3-3--------------------2-2--3-3--4-4----------------|
E--1--1--1-1-1--------------5-5-5-5-5-5--3-3-------------------------------|

G--------------------------------------------------------------------------|
D--------------------------------------------------------------------------|
A--5--5--5-5-5-------------3-3-3-3-3-3-------2-2--3-3--4-4-----------------|
E--------------5-5-5-5-5-5--------------3-3--------------------------------|

G--------------------------------------------------------------------------|
D--------------------------------------------------------------------------|
A--------------3-3-3-3-3-3--------------------2-2--3-3--4-4----------------|
E--1--1--1-1-1--------------5-5-5-5-5-5--3-3-------------------------------|

G--------------------------------------------------|
D--------------------------------------------------|
A--5--5--5-5-5-------------3~~~~~~~----------------|
E--------------5-5-5-5-5-5--------------3~~~~~~~~--|

After Chorus 1:11
G--------------------------------------------------------------------------|
D--------------------------------------------------------------------------|
A--------------------------------------------------------------------------|
E--1-1-1-1-1-1-1-1-1-1-1-1-1-1/13-13-13-13-13-13-13-13-13-13-13-13-13-13---|

Verse 1:17
G------------------------------7-6-5-5-5-5-5-5------------------------|
D--------------5-6-7-7-7-7-7-7-----------------3-4-5-5-5-5-5-5--------|
A--5-5-5-5-5-5-------------------------------------------------0-3-4--| X3
E---------------------------------------------------------------------|

G--------------------------------------------------------------------------|
D--------------5-6-7-7-7-7-7-7---------------------------------------------|
A--5-5-5-5-5-5-----------------5-4-3-3-3-3-3-3-----------------------------|
E----------------------------------------------1-2-3-3-3-3-3-3-------------|

Chorus 1:40
G--------------------------------------------------------------------------|
D--------------------------------------------------------------------------|
A--------------3-3-3-3-3-3--------------------2-2--3-3--4-4----------------|
E--1--1--1-1-1--------------5-5-5-5-5-5--3-3-------------------------------|
[ Tab from: https://www.guitartabs.cc/tabs/t/the_wombats/moving_to_new_york_btab.html ]
G--------------------------------------------------------------------------|
D--------------------------------------------------------------------------|
A--5--5--5-5-5-------------3-3-3-3-3-3-------2-2--3-3--4-4-----------------|
E--------------5-5-5-5-5-5--------------3-3--------------------------------|

G--------------------------------------------------------------------------|
D--------------------------------------------------------------------------|
A--------------3-3-3-3-3-3--------------------2-2--3-3--4-4----------------|
E--1--1--1-1-1--------------5-5-5-5-5-5--3-3-------------------------------|

G--------------------------------------------------------------------------|
D--------------------------------------------------------------------------|
A--5--5--5-5-5-------------3~~~~~~~----------------------------------------|
E--------------5-5-5-5-5-5--------------3~~~~~~~~--------------------------|

After Chorus 2:04
G--------------------------------------------------------------------------|
D--------------------------------------------------------------------------|
A--------------------------------------------------------------------------|
E--1-1-1-1-1-1-1-1-1-1-1-1-1-1/13-13-13-13-13-13-13-13-13-13-13-13-13-13---|

                         STOP! (guitar bit)

then... 2:22
G-----|
D-----|
A----|
E10/-|

G--------------------------------------------------------------------------|
D--------------------------------------------------------------------------|
A--5-5r--55-5r--5----------------3-3r--33-3r--3----------------------------|
E-----------------5-5r--55-5r--5----------------3-3r--33-3r--3-------------|

G-------------------------------------------------------------------|
D-------------------------------------------------------------------|
A--5-5r--55-5r--5---------------3-3-3-3-3-3-------------------------|
E----------------5-5r--55-5r--5-------------3-3-3-3-3-3-3-3---------|

("r" means rest)

Chorus 2:34
G--------------------------------------------------------------------------|
D--------------------------------------------------------------------------|
A--------------3-3-3-3-3-3--------------------2-2--3-3--4-4----------------|
E--1--1--1-1-1--------------5-5-5-5-5-5--3-3-------------------------------|

G--------------------------------------------------------------------------|
D--------------------------------------------------------------------------|
A--5--5--5-5-5-------------3-3-3-3-3-3-------2-2--3-3--4-4-----------------|
E--------------5-5-5-5-5-5--------------3-3--------------------------------|

G--------------------------------------------------------------------------|
D--------------------------------------------------------------------------|
A--------------3-3-3-3-3-3--------------------2-2--3-3--4-4----------------|
E--1--1--1-1-1--------------5-5-5-5-5-5--3-3-------------------------------|

G--------------------------------------------------------------------------|
D--------------------------------------------------------------------------|
A--5--5--5-5-5-------------3~~~~~~~----------------------------------------|
E--------------5-5-5-5-5-5--------------3~~~~~~~~--------------------------|

After Chorus 2:58
G--------------------------------------------------------------------------|
D--------------------------------------------------------------------------|
A--------------------------------------------------------------------------|
E--1-1-1-1-1-1-1-1-1-1-1-1-1-1/13-13-13-13-13-13-13-13-13-13-13-13-13-13---|

Ending 3:04
G----------------------------------|
D--7-5----------7-5--7-5-----------|
A------7-5-7-5---------------------| X2
E------------------------3-3-3-----|

G--------------------------------------------------------------------------|
D--------------------------------------------------------------------------|
A--------------------------------------------------------------------------|
E--1-1-1-1-1-1-1-1-1-1-1-3-3-3/13-13-13-13-13-13-13-13-13-13-13-13-13-13---|

G-----------------------------|
D-----------------------------|
A-----------------------------|
E-15-15-15-/-1~~~~~~~~~-------|

Woo!

Rates and comments if ok or crap =]