The Wedding - Song For The Broken Chords & Tabs

 

Song For The Broken Chords & Tabs

The Wedding Chords & Tabs

Version: 1 Type: Tab

Song For The Broken Tab

   
intro: guitar 1
eb-------------------------------------------------->
Bb-------------------------------------------------->
Gb-55555555555555555555--------4h54h54h54h5-----5~-->
Db-5555555555555555555555555555~-----------555555~-->
Ab-3333333333333333333333333333~-----------333333~-->
Db---------------------33333333~-----------33333---->
   ** * * ** * * ** * *** * **             ** *

intro: guitar 1
/eb-------------------------------------------------->\
|Bb-------------------------------------------------->|
|Gb-55555555555555555555--------4h54h54h54h5-----5~-->|
|Db-5555555555555555555555555555~-----------555555~-->|
|Ab-3333333333333333333333333333~-----------333333~-->|
|Db---------------------33333333~-----------33333---->|
|   ** * * ** * * ** * *** * **             ** *      |
|intro: guitar 2                                      |
|eb-------------------------------------------------->|
|Bb-------------------------------------------------->|
|Gb-5~----------------------------------------------->|
|Db-5~----------------------------------------------->|
|Ab-3~----------------------------------------------->|
\Db-------------------------------------------------->/

intro: guitar 2
eb----------------->
Bb----------------->
Gb-5555-555-555-55->
Db-5555-555-555-55->
Ab-3333-333-333-33->
Db----------------->
   ***  **  **  *

donít give up on the hope

verse 1: guitar 2
eb---------------------------------------------------------------->
Bb---------------------------------------------------------------->
Gb-44444444-55554444----------55555555-44444444-55554444---------->
Db-55555555-22222222-55555555-55555555-55555555-22222222-55555555->
Ab-22222222-00000000-33333333-33333333-22222222-00000000-33333333->
Db-------------------33333333----------------------------33333333->
that keeps you breathing cause after all is said and done, itís all your
lonely heart has so look forward to your day of liberation when you can
stop grieving

verse 1: guitar 2                   gt. 1
eb---------------------------------|-------------------------------------->
Bb---------------------------------|-------------------------------------->
Gb-55555-55-55-55-5555555-55-55-5-5|5555-55-55-55-4444-44-44-44-2222-5--4->
Db-55555-55-55-55-5555555-55-55-5-5|5555-55-55-55-5555-55-55-55-2222------>
Ab-33333-33-33-33-3333333-33-33-3-3|3333-33-33-33-2222-22-22-22-0000------>
Db---------------------------------|-------------------------------------->
   ***** ** ** ** ******* ** ** *   **** ** ** ** **** ** ** ** ****
so how much would it cost for you to gain every thing and everything you
lost deserved to be gone anyway so donít give up, 

verse 1: guitar 1                                         gt. 2
eb-------------------------------------------------------|---------------->
Bb-------------------------------------------------------|---------------->
Gb------------------5555-55-55-55-4444-44-44-44-2222-5--4|---------------->
Db-555-555-5552320--5555-55-55-55-5555-55-55-55-2222-----|555-555-555-555->
Ab-333-333-333----3-3333-33-33-33-2222-22-22-22-0000-----|333-333-333-333->
Db-333-333-333-------------------------------------------|333-333-333-333->
   **  **  **       **** ** ** ** **** ** ** ** ****      **  **  **  **
yeah, donít give in to the world around you that pressures you to give up
the fight, roll over and die forget the way you were

chorus: guitar 2
eb------------------------------------------------------------------------->
Bb------------------------------------------------------------------------->
Gb-55555555-44444444-55554444----------55555555-44444444-55554444---------->
Db-55555555-55555555-22222222-55555555-55555555-55555555-22222222-555555~-->
Ab-33333333-22222222-00000000-33333333-33333333-22222222-00000000-333333~-->
Db----------------------------33333333----------------------------333333~-->
donít give up on the hope that keeps you breathing cause after all is said
and done, itís all your lonely heart has
[ Tab from: https://www.guitartabs.cc/tabs/t/the_wedding/song_for_the_broken_tab.html ]
verse 2: guitar 1
eb------------------------------------------------------------------------>
Bb------------------------------------------------------------------------>
Gb-55555-55-55-55-5555555-55-55-5-5-5555-55-55-55-4444-44-44-44-2222-5--4->
Db-55555-55-55-55-5555555-55-55-5-5-5555-55-55-55-5555-55-55-55-2222------>
Ab-33333-33-33-33-3333333-33-33-3-3-3333-33-33-33-2222-22-22-22-0000------>
Db------------------------------------------------------------------------>
   ***** ** ** ** ******* ** ** *   **** ** ** ** **** ** ** ** ****
and so how much pain could you take before you gave up would you throw it
all away would you fight for that one day when you heard your Savior say,

verse 2: guitar 1                                         gt. 2
eb-------------------------------------------------------|---------------->
Bb-------------------------------------------------------|---------------->
Gb------------------5555-55-55-55-4444-44-44-44-2222-5--4|---------------->
Db-555-555-5552320--5555-55-55-55-5555-55-55-55-2222-----|555-555-555-555->
Ab-333-333-333----3-3333-33-33-33-2222-22-22-22-0000-----|333-333-333-333->
Db-333-333-333-------------------------------------------|333-333-333-333->
   **  **  **       **** ** ** ** **** ** ** ** ****      **  **  **  **
when you heard your Savior say, ďmy child, I always knew youíd make it
home. so walk through those gates of gold and claim your throneĒ

---REPEAT CHORUS

bridge: guitar 1               gt. 2
eb----------------------------|------------------------------>
Bb----------------------------|------------------------------>
Gb------------------------4--5|5555555-444455-5555555-444455->
Db-3333333-333333-3333333-----|3333333-333333-3333333-333333->
Ab----------------------------|3333333-333333-3333333-333333->
Db----------------------------|3333333-333333-3333333-333333->
so I wait for you to save me so I wait for you to save me

bridge: guitar 2
eb-000000-000000-000000-000000->
Bb-333333-333333-333333-333333->
Gb-222222-222222-222222-222222->
Db-000000-000000-000000-000000->
Ab-000000-000000-000000-000000->
Db-000000-000000-000000-000000->
still I wait for you to lift me off my feet and

bridge: guitar 2
eb-------------------------------000000-000000-0~-------->
Bb-------------------------------333333-333333-3~-------->
Gb-5555555-444455-5555555-444455-222222-222222-2~-------->
Db-3333333-333333-3333333-333333-000000-000000-0~-------->
Ab-3333333-333333-3333333-333333-000000-000000-0~-------->
Db-3333333-333333-3333333-333333-000000-000000-0~-------->
so I wait for you to save me so I wait for you to save me still I wait for
you to lift me off my feet
----------------------------------------------------------------------------
still I wait for you in the dark of the night cause I wonít give up give up
the fight still I want for you In the dark of the night

bridge: guitar 1
eb-------3~-----3~-----3~---3~---3~-----3~-----3~----3~---->
Bb---------1~-----1~------1~-------1~-----1~------1~------->
Gb------0~-----0~-----0~--------0~-----0~-----0~-----------> repeat
Db----3~-----0~---------------3~-----0~-------------------->
Ab------------------3~----------------------3~------------->
Db--------------------------------------------------------->
still I wait for you again still I wait for you again cause in the dark of
the night is where youíll find me head held in my hands is where still I
wait for you

chorus: guitar 2
eb------------------------------------------------------------------------->
Bb------------------------------------------------------------------------->
Gb-55555555-44444444-55554444----------55555555-44444444-55554444---------->
Db-55555555-55555555-22222222-55555555-55555555-55555555-22222222-55555555->
Ab-33333333-22222222-00000000-33333333-33333333-22222222-00000000-33333355->
Db----------------------------33333333----------------------------33333333->
donít give up on the hope that keeps you breathing

cause after all is said and done, itís all your lonely heart has
----------------------------------------------------------------------------
so I wait for you to save me so I wait for you to save me

outro: guitar 2
eb---------->
Bb---------->
Gb---------->
Db-10\------>
Ab-10\------>
Db-10\------>
     /\slowly slide off