The Sunshine Underground - Commercial Breakdown Chords & Tabs

 

Commercial Breakdown Chords & Tabs

The Sunshine Underground Chords & Tabs

Version: 1 Type: Tab

Commercial Breakdown Tab

This is my first tab so hope its all good, let me know if you have any corrections, make 
you use loads of overdrive!

AN awesome track from an ace band>!

tuning standard: eBGDAE

Intro

  +
e5----5-5--5-5--5-5--5-5--5--5--9--9---9--9---9--9---9--9--9--9--9--9--
B5----5-5--5-5--5-5--5-5--5--5--9--9---9--9---9--9---9--9--9--9--9--9--
G6----6-6--6-6--6-6--6-6--6--6--10-10--10-10--10-10--10-------------10-
D7----7-7--7-7--7-7--7-7--7--7--11-11--11-11--11-11-----11-------11----
A7----7-7--7-7--7-7--7-7--7--7--11-11--11-11--11-11--------11-11-------
E5----5-5--5-5--5-5--5-5--5--5--9--9---9--9---9--9---9--9--9--9--9--9--

Drums and Lead Come in.
[ Tab from: https://www.guitartabs.cc/tabs/t/the_sunshine_underground/commercial_breakdown_tab.html ]
e-5-5--5-5--5-5--5-5--5--5--9--9---9--9---9--9---9--9--9--9--9--9--10-10-|
B-5-5--5-5--5-5--5-5--5--5--9--9---9--9---9--9---9--9--9--9--9--9--10-10-|
G-6-6--6-6--6-6--6-6--6--6--10-10--10-10--10-10--10------------10--11-11-|
D-7-7--7-7--7-7--7-7--7--7--11-11--11-11--11-11-----11-------11----12-12-|
A-7-7--7-7--7-7--7-7--7--7--11-11--11-11--11-11--------11-11-------12-12-|
E-5-5--5-5--5-7--5-5--5--5--9--9---9--9---9--9---9--9--9--9--9--9--10-10-|

e-10-10--10-10--9--9--9--9--9--9--5-5--5-5--5-5--5-5--5--5-
B-10-10--10-10--9--9--9--9--9--9--5-5--5-5--5-5--5-5--5--5-
G-11-11--11-11--------10-10-------6-6--6-6--6-6--6-6--6--6-
D-12-12--12-12-----11-------11----7-7--7-7--7-7--7-7--7--7-
A-12-12--12-12--11-------------11-7-7--7-7--7-7--7-7--7--7-
E-10-10--10-10--9--9--9--9--9--9--5-5--5-5--5-5--5-5--5--5-

+ Harmonic
\ slide up
/ slide down
p pull off
h hammer on