The Scene Aesthetic - Heavy Lies The Crown Chords & Tabs

 

Heavy Lies The Crown Chords & Tabs

The Scene Aesthetic Chords & Tabs

Version: 3 Type: Tab

Heavy Lies The Crown Tab

Standard Tuning
Capo 2 if you like


3
3
0 while playing this chord just strum the top 3 strings ( 1&2&3)
0
0
0

can also be played as a G major chord
sorry for not showing the strumming =o
MAJOR CREDIT to xEscapeTheFate who gave me a tab for this song on which to make this one



Intro:(X4)
e|----------------0-----3-----3------------|
b|----------------0-----3-----3------------|
g|----------------0-----0-----0------------|    
d|--2/4--2-0-2----2-----2-----0------------|  
a|----------------2-----3-----0------------|
e|----------------0-----0-----0------------|


Verse:(X4)
e|----------------0-----3-----3------------|
b|----------------0-----3-----3------------|
g|----------------0-----0-----0------------|    
d|--2/4--2-0-2----2-----2-----0------------|  
a|----------------2-----3-----0------------|
e|----------------0-----0-----0------------|


Pre-Chorus:(X2)
e|--0----0----0----0--|
b|--0----0----0----0--|
g|--2----0----0----0--|
d|--2----2---2----2--|
a|--0----3----2----2--|
e|--0----0----0----0--|


Chorus:(X2)
e|--0----3----3----0----0---|
b|--0----3----3----0----0---|
g|--0----0----0----0----0---|
d|--2----0----2----2----2---|
a|--2----0----3----3----2---|
e|--0----0----0----0----0---|


Intro to next verse:(X2)
e|----------------0-----3-----3------------|
b|----------------0-----3-----3------------|
g|----------------0-----0-----0------------|    
d|--2/4--2-0-2----2-----2-----0------------|  
a|----------------2-----3-----0------------|
e|----------------0-----0-----0------------|

[ Tab from: https://www.guitartabs.cc/tabs/t/the_scene_aesthetic/heavy_lies_the_crown_tab_ver_3.html ]
Verse:
(Hit the 6th string pretty hard when you do the 3-2-0 part)
e|-------0-0-0-0--3-3-3-3---3-3-3-3-3-3-3-----|
B|-------0-0-0-0--3-3-3-3---3-3-3-3-3-3-3-----|
G|-------0-0-0-0--0-0-0-0---0-0-0-0-0-0-0-----|[2X]
D|-------2-2-2-2--2-2-2-2---0-0-0-0-0-0-0-----|
A|-------2-2-2-2--3-3-3-3---0-0-0-0-0-0-0-----|
E|-3-2-0-0-0-0-0--0-0-0-0---0-0-0-0-0-0-0-----|

e|-0-0-0-0--3-3-3-3---3-3-3-3-3-3-3-----|
B|-0-0-0-0--3-3-3-3---3-3-3-3-3-3-3-----|
G|-0-0-0-0--0-0-0-0---0-0-0-0-0-0-0-----|
D|-2-2-2-2--2-2-2-2---0-0-0-0-0-0-0-----|
A|-2-2-2-2--3-3-3-3---0-0-0-0-0-0-0-----|
E|-0-0-0-0--0-0-0-0---0-0-0-0-0-0-0-----|

e|----------0-0-0-0--3-3-3-3---3-3-3-3-3-3-3-----|
B|----------0-0-0-0--3-3-3-3---3-3-3-3-3-3-3-----|
G|----------0-0-0-0--0-0-0-0---0-0-0-0-0-0-0-----|
D|----------2-2-2-2--2-2-2-2---0-0-0-0-0-0-0-----|
A|----------2-2-2-2--3-3-3-3---0-0-0-0-0-0-0-----|
E|----3-2-0-0-0-0-0--0-0-0-0---0-0-0-0-0-0-0-----|

e|-0-0-0-0--3-3-3-3---3-3-3-3-3-3-3-----|
B|-0-0-0-0--3-3-3-3---3-3-3-3-3-3-3-----|
G|-0-0-0-0--0-0-0-0---0-0-0-0-0-0-0-----|
D|-2-2-2-2--2-2-2-2---0-0-0-0-0-0-0-----|
A|-2-2-2-2--3-3-3-3---0-0-0-0-0-0-0-----|
E|-0-0-0-0--0-0-0-0---0-0-0-0-0-0-0-----|


Pre-Chorus:
e|--0----0----0----0-0-0-0-0-0-0-0-0-0|
b|--0----0----0----0-0-0-0-0-0-0-0-0-0|
g|--0----0----0----0-0-0-0-0-0-0-0-0-0|
d|--2----2---2----2-2-2-2-2-2-2-2-2-2|
a|--2----2----2----3-3-3-3-3-3-3-3-3-3|
e|--0----0----0----0-0-0-0-0-0-0-0-0-0|


Chorus:(X2)
e|--0----3----3----0----0---|
b|--0----3----3----0----0---|
g|--0----0----0----0----0---|
d|--2----0----2----2----2---|
a|--2----0----3----3----2---|
e|--0----0----0----0----0---|



Verse:
couldnt get this verse=/

Outro:(X2)
e|----------------0-----3-----3------------|
b|----------------0-----3-----3------------|
g|----------------0-----0-----0------------|    
d|--2/4--2-0-2----2-----2-----0------------|  
a|----------------2-----3-----0------------|
e|----------------0-----0-----0------------|