The Pogues - The Ghost Of A Smile Chords & Tabs

 

The Ghost Of A Smile Chords & Tabs

The Pogues Chords & Tabs

Version: 1 Type: Bass Tab

The Ghost Of A Smile Bass Tab

   
Song: The Ghost of a Smile
Artist: The Pogues

Tuning: Standard
Tabbed By: BigG-31
Tabbed On: 16/03/10
Dedicated to: St. Patricks Day and all the other Irishmen out there!
Email: greg_gunner4life@hotmail.co.uk
Second Tab Iíve Done!!! So all comments are welcome, constructive criticism or nice
are preferable though. You also may have to listen to the song a bit to pick up on how many
to repeat each section and variations in the order, but I have done my best to make life 
you guys easier. Enjoy.

Intro 1 - A
G|---------|   |--------|
D|---------|   |--------|
A|---------|   |--------|
E|5-5-5-55-|x1 |5-5-55--|x3
[ Tab from: https://www.guitartabs.cc/tabs/t/the_pogues/the_ghost_of_a_smile_btab.html ]
Intro 2 - B
G|----------------|
D|----------------|
A|--5--34-5---5---|
E|5---3-----5---5-|x4

Verse - C
G|----------------|
D|----------------|
A|---7-77----7-77-|
E|77------55------|x8

Chorus - D
G|----------------|
D|----------------|
A|7-7-7-7-5-5-5-5-|
E|----------------|x2

Outro 1 - E
G|----------------|
D|----------------|
A|7-7-7-7-5-5-555-|
E|----------------|x4

Outro 2 - F
G|--------------------|
D|--------------------|
A|12-12-12-12-8-8-888-|
E|--------------------|x6

Order:
A,B,C,D,C,D,A,B,C,D,E,F