The Organ - Brother Chords & Tabs

 

Brother Chords & Tabs

The Organ Chords & Tabs

Version: 2 Type: Tab

Brother Tab

   
----------------------------------------------------------------------------
The Organ  Brother
----------------------------------------------------------------------------

Band: The Organ
Song: Brother
Album: Grab That Gun
Track: 1

Tabbed By: Ashlee
E-mail: jagged_lil_west@hotmail.com

These are my corrections on the tab already on here. This is just the intro and main riff.

Tuning: Standard


Intro:
[ Tab from: https://www.guitartabs.cc/tabs/t/the_organ/brother_tab_ver_2.html ]
e|----------------------------------------------------------------------|
B|------5------5--------------------------------------------------------|
G|------5------5--------------------------------------------------------|
D|-------------0--------------------------------------------------------|
A|----------------------------------------------------------------------|
E|----------------------------------------------------------------------|

Main Riff:

e|----------------------------------------------------------------------|
B|---------------------------5--5--5--5---8--5--5-8-5-8-----------------|
G|-----------------9-9-9---9-5--5--5--5---------------------------------|
D|-----7-7h9-9-9-9-------9----------------------------------------------|
A|----------------------------------------------------------------------|
E|----------------------------------------------------------------------|




| /  slide up
| \  slide down
| h  hammer-on
| p  pull-off
| ~  vibrato
| +  harmonic
| x  Mute note
==========================================================================