The Loved Ones - The Odds Chords & Tabs

 

The Odds Chords & Tabs

The Loved Ones Chords & Tabs

Version: 1 Type: Bass Tab

The Odds Bass Tab

Loved ones Ė Keep Your Heart - The odds

I donít think itís perfect and I know the timing isnít either. 
Corrections very welcome!

~ = let ring
/ = slide up
\ = slide down

Please Rate!

G|-------------------------------------|
D|-------------------------------------| 
A|-33333333-00000000-------------------| x2
E|-------------------33333333-11111111-|

G|---------------------|
D|---5----7------------| 
A|-33-3--------3----3--| 
E|------55-5-33-3-11-1-|

G|-----------------------55-544-4-------------------|
D|-------------------------------22-23333-5555-3333-| 
A|-3\---------3\------------------------------------| 
E|---------113--------113---------------------------|

G|-------------2355555555-5-5-3---3-------|
D|------------3-----------------5---5-3---| 
A|-3333333333---------------------------5-| 
E|----------------------------------------|

G|--------------------------------------------------------------------|
D|--------------------------------------------------------------------| 
A|-3-3333-------------3-3333-------------3-3333-----------------------| 
E|--------3-1-1111111--------3-1-1111111--------5-3-3333333-111111111-|

G|-----------------------------------------------|
D|--------3-2---------3-2---------------------3~-| 
A|------------3-----------3-33333333-------------| 
E|-1/3-33-------11-11----------------33333333----|

Then

G|-------------------------------------|
D|-------------------------------------| 
A|-33333333-00000000-------------------| x2
E|-------------------33333333-11111111-|

G|---------------------|
D|---5----7------------| 
A|-33-3--------3----3--| 
E|------55-5-33-3-11-1-|

G|-----------------------55-544-4-------------------|
D|-------------------------------22-23333-5555-3333-| 
A|-3\---------3\------------------------------------| 
E|---------113--------113---------------------------|
[ Tab from: https://www.guitartabs.cc/tabs/t/the_loved_ones/the_odds_btab.html ]
G|-------------2355555555-5-5-3---3-------|
D|------------3-----------------5---5-3---| 
A|-3333333333---------------------------5-| 
E|----------------------------------------|

G|---------------------------------------------------------------------------|
D|---------------------------------------------------------------------------| 
A|-3-3333-------------3-3333-------------3-3333------------------------------|
E|--------3-1-1111111--------3-1-1111111--------5-3-3333333-1111111111111111-|

G|-----------------------------------------------------54-------------------|
D|----------3-3333333----------3-33-3202-77777777-55555--5-3333333333333333-| 
A|-3-3333-------------3-3333------------------------------------------------| 
E|--------3------------------3----------------------------------------------|

G|-----------------|
D|--------3-2------| 
A|------------3----| 
E|-1/3-33-------1~-|

Bridge 1:50

G|-------------------|
D|-------------------| 
A|-33333333----------| x2
E|----------11111111-|

G|------4/5\4-------------------------------------|
D|-7-77-------5-55-77-222-33333333-5555-5-3-2-0---|
A|----------------------------------------------3-|
E|------------------------------------------------|

G|----------------------------------------------------|
D|-------------3~-7-777777-5-555555-3-333333-55555555-|
A|-3-33------3~---------------------------------------| 
E|------1-11------------------------------------------|

G|-------------------|
D|-------------------| 
A|-33333333----------| x2
E|----------11111111-|

G|----------77777777--------------------|
D|--------------------------------------| 
A|-33333333-----------------------------|
E|-------------------11111111-5555-3333-|

G|-------------------|
D|-------------------| 
A|-33333333----------|
E|----------11111111-|

G|-------------------|
D|---------3-32-0-02-| 
A|-3333333-----------| 
E|-------------------|

G|--4-4/5\4---4-55555555-------------|
D|----------5------------33333333----| 
A|-3------------------------------3~-| 
E|-----------------------------------|