The Loved Ones - The Bridge Chords & Tabs

 

The Bridge Chords & Tabs

The Loved Ones Chords & Tabs

Version: 1 Type: Bass Tab

The Bridge Bass Tab

Band: The Loved Ones
Album: Build and Burn
Song: The Bridge

I know the album isnít out yet but theyíve released this song.

I know I havenít done the timing perfectly but just listen to the song and youíll get it.

Please Rate!

/ = slide up
\ = slide down
~ = let ring

Intro: (0:15)

G|------|
D|------| 
A|-2/7~-| 
E|------|

Verse 1: (0:18)

G|----------------------------------|
D|----------------------------------| 
A|-------7-------7----------------6-| x2
E|-0-0000--0-0000ó-7-77777-9-999-7--|

G|---------------------------|
D|---------------------------| 
A|------77------7~------77---| 
E|-0-000---0-000ó--0-000--0~-|
 
Verse 2: (0:47) 

G|------------------------------------------------------------|
D|------------------------------------------------------------| 
A|------7~------7----------------6----777\-77-----------------| 
E|-0-000---0-000-77-77777-9-999-7--0---------7-77777-9-999-77-|

Pre-Chorus (1:06)

G|--------------------------------------------|
D|--------------9/11/9/11/9-------------------| 
A|--------------------------------------------| 
E|-55555555-777-------------55555555-77777777-|

Chorus (1:15)
[ Tab from: https://www.guitartabs.cc/tabs/t/the_loved_ones/the_bridge_btab.html ]
G|---------------------------------------|
D|---------------------------------------| 
A|-77777777------------------------------|  x2 
E|----------77777777-99999999-5555-57-57-|

Post-Chorus 1 (1:34)

G|---------------------------------|
D|---------------------------------| 
A|------77------77------77---------| 
E|-0-000---0-000ó--0-000---0-0000~-|

Pause
Post-Chorus 2: (1:52)

G|---------------------------|
D|-----14>>-13>>-11>/18*-16*-| 
A|---------------------------| 
E|-5-7-----------------------|

> = play 8 times
* = play 4 times

Verse 3: (2:02)

G|-------------------------------------------|
D|-------------------------------------------| 
A|------79119------79119-9-9--79119-------67-| 
E|-0-079------0-079---------79------9-9997---|

G|------------------------------------------|
D|------------------------------------------| 
A|------79119------79119-9-9--79119-------6-| 
E|-0-079------0-079---------79------9-9997--|

(11 is eleven not two 1ís)
(Also, it might be easier if you 6th fret on the d string instead of the 11)

Then: 
Pre-Chorus (2:21)
Chorus (2:30) x2

Then:

Outro Chorus: (2:49)

G|--------------------------------------------------------|
D|----99-77-66----99-77-66----99/11-99/11\9-77-66-4/6\4-2-| 
A|-77----------------------77-----------------------------| x2
E|-------------77-----------------------------------------|

G|------------------------------|
D|------------------------------| 
A|------77------77------791197~-| 
E|-0-000---0-000---0-079--------|