The Loved Ones - Sarahs Game Chords & Tabs

 

Sarahs Game Chords & Tabs

The Loved Ones Chords & Tabs

Version: 1 Type: Bass Tab

Sarahs Game Bass Tab

Band: Loved Ones
Album: Build And Burn
Song: Sarahís Game

The album isnít out yet but theyíve released this song
I think itís a pretty cool song with a nice bass line

I know the timing isnít perfect but if you listen to the song it should become clear.

Note: throughout 11 is eleven not two 1ís

/ = slide up
\ = slide down
~ = let ring

Please Rate!

Verse 1: (0:10)

G|-----------------------------------------------------------|
D|-------44444/6------44444/6------44444/6-4-666666-4-666666-| 
A|-444444-------444444-------444444--------------------------| 
E|-----------------------------------------------------------|

G|-----------|
D|-8>-6>-4>>-|     > = Play 15 times
A|-----------| 
E|-----------|

Verse 2: (0:30)

G|---------------------------------------------------------------|
D|---------------------------------------------------------------| 
A|-44444---------44444----------44444----------------------------| 
E|------4-22222/4-----4-22222/4------4-22222/4-2-444444-2-444444-|

G|-----------------------------------------------------46-6/8\65-|
D|-------44444/6------44444/6------44444/6-4-666666-4-6----------|
A|-444444-------444444-------444444------------------------------| 
E|---------------------------------------------------------------|

G|-----------|
D|-8>-6>-4>>-| the last few 4ís are hit at half the speed
A|-----------| 
E|-----------|

G|------------------------------8-------------------6---6-6-6-6-|
D|-8888888-8-9-10-9-8-6/8\6-6-6ó--6-6/8\6-4/6\4-4-4----4-4-4-4--| 
A|--------------------------------------------------------------| 
E|--------------------------------------------------------------|

Chorus: (1:09)

G|------------------------------------|
D|------------------------------------| 
A|-44444-2----------------------------| 
E|---------4444444-2222222-6-2-444444-|

G|----------------------------------|
D|----------------------------------| 
A|-44444-2--------------------------| 
E|---------6666666-2222222-44444444-|
[ Tab from: https://www.guitartabs.cc/tabs/t/the_loved_ones/sarahs_game_btab.html ]
G|------------------------------------|
D|------------------------------------| 
A|-44444-2----------------------------| 
E|---------4444444-2222222-6-2-444444-|


G|-------------------|
D|----9*-8*-6*-4****-| * = Play 8 times
A|-4*----------------| 
E|-------------------|

Post-Chorus: (1:35)

G|-------------|
D|-------------| 
A|-------------| x2
E|-9*-7*-6*-4*-|

G|--------------------|
D|--------------------| 
A|-------9998-889-11í-|   í = play 9 times
E|-9*-7*--------------|

G|--------------------|
D|--------------------| 
A|-------9998-889-6~\-| ~\ = hold slightly before sliding down
E|-9*-7*--------------| 

Pause

Bridge: (1:58)

G|------------|
D|--------11~-| 
A|-8-9-11-----| 
E|------------|

Pause

G|--------------------46-6/8\65-|
D|-11****-4-666666-4-6----------|
A|------------------------------| 
E|------------------------------|

G|-----------|
D|-8>-6>-4>>-| the last few 4ís are hit at half the speed
A|-----------| 
E|-----------|

G|------------------------------8-------------------6---6-6-6-6-|
D|-8888888-8-9-10-9-8-6/8\6-6-6ó--6-6/8\6-4/6\4-4-4----4-4-4-4--| 
A|--------------------------------------------------------------| 
E|--------------------------------------------------------------|

Final Chorus: (2:34)

G|----------------------|
D|----------------------| 
A|-4~-------4~----------| 
E|----4~-2~----6~-2~-4~-|

G|------------------------------------|
D|------------------------------------| 
A|-44444-2----------------------------| 
E|---------4444444-2222222-6-2-444444-|

G|-------------|
D|----9*-8*-6*-| 
A|-4*----------| 
E|-------------|
 
G|---------------------------------|
D|---------------------------------| 
A|-44444-2-------------------------| 
E|---------4444444-222222222222222-|

G|----------------------------------|
D|----------------------------------| 
A|-44444-2--------------------------| 
E|---------6666666-2222222-44444444-|

G|------------------------------------|
D|------------------------------------| 
A|-44444-2----------------------------| 
E|---------4444444-2222222-6-2-444444-|

G|----------------|
D|----9~-8~-6~-4~-| 
A|-4~-------------| 
E|----------------|