The Loved Ones - Pretty Good Year Chords & Tabs

 

Pretty Good Year Chords & Tabs

The Loved Ones Chords & Tabs

Version: 1 Type: Bass Tab

Pretty Good Year Bass Tab

   
Loved ones Ė pretty good year - Build & Burn

I know the timing isnít perfect but if you listen to the song youíll get it.

Verse (0:15)

G|-------------------------------------|
D|-------------------------------------| 
A|-5-5-555-3-33-333------22-3-5-55-555-| 
E|------------------3-33---------------|

G|-------------------------------------|
D|-------------------------------------| 
A|-5-3-2-2-222-------------------------| 
E|-------------3-3-333-3-5-555-3-5-555-|

G|---------------------------------------|
D|---------------------------------------| 
A|-2-0---------5-5-555-0-0-000-2-22-2222-| 
E|-----3-3-333---------------------------|

G|----------------------------|
D|----------------------------| 
A|-------------------5-5-5555-| 
E|-3-3-333-5-55-5555----------|


Chorus (0:29)

G|---------------------|
D|--------5/7-5-445~-7-| 
A|-2-0245--------------| 
E|---------------------|

G|-------------------|
D|--------5/7-5-445~-| 
A|-2-0245------------| 
E|-------------------|

G|---------------------------|
D|-0-2/4-2-0245-45-457545424-| 
A|---------------------------| 
E|---------------------------|
[ Tab from: https://www.guitartabs.cc/tabs/t/the_loved_ones/pretty_good_year_btab.html ]
G|--------------------------|
D|-0-2/4-2-0245-57-9-11/12~-|
A|--------------------------| 
E|--------------------------|

Then:

Verse (0:58)

Chorus 2: (1:12)

G|--------------------|
D|--------5/7-5-5-5-5-| 
A|-2-0245-------------| 
E|--------------------|

G|---------------------|
D|--------5/7-5-5-5-57-| 
A|-2-0245--------------| 
E|---------------------|

G|--------------------------|
D|--------5/7-5-445-445-445-| 
A|-2-0245-------------------| 
E|--------------------------|

G|------------------------------|
D|-0-2/4-2-0245-45-45-457545424-| 
A|------------------------------| 
E|------------------------------|

G|----------------------------|
D|-0-2/4-2-0245-57-79-11-1212-| 
A|----------------------------| 
E|----------------------------|

G|------------------------------|
D|-0-2/4-2-0245-45-45-457545424-| 
A|------------------------------| 
E|------------------------------|

G|------------------------------|
D|-0-2/4-2-0245-45-45-457545424-| 
A|------------------------------| 
E|------------------------------|

G|------------------------|
D|-0-2/4-2-0245-5-5-5/7-5-| 
A|------------------------| 
E|------------------------|