The Last Shadow Puppets - In My Room Chords & Tabs

 

In My Room Chords & Tabs

The Last Shadow Puppets Chords & Tabs

Version: 1 Type: Chords

In My Room Chords

   
-------------------------------------------------------------------------------
	     In My Room  The Last Shadow Puppets
-------------------------------------------------------------------------------
Tabbed by: Ben Pattyson

Great song with a weird chord progression but sounds awesome! Cheers.

Chords used:

  Em   Emaddb13 Em6    Bb     Cm     Fm      E
e|-0------0------0------1------3------1------0------|
B|-0------1------2------3------4------1------0------|
G|-0------0------0------3------5------1------1------|
D|-2------2------2------3------5------3------2------|
A|-2------2------2------1------3------3------2------|
E|-0------0------0--------------------1------0------|

Intro

Em/Emaddb13/Em6/Emaddb13/Bb/Bb/Bb/Bb x2

Chorus

Cm

Fm                       Cm
In my room she'll get to you
Fm                       Cm
In my room she'll get to you
Fm
In my room

Verse
[ Tab from: https://www.guitartabs.cc/tabs/t/the_last_shadow_puppets/in_my_room_crd.html ]
Em
Could I turn on the light
Bb
Impress unknown eyes
Em
Humour absorbs the thoughts
Bb
Challenge emotionless thoughts
Em
Seeing things with a second glance
Bb
As she turns through her magazines

Chorus

Cm

Fm                       Cm
In my room she'll get to you
Fm                       Cm
In my room she'll get to you
Fm
In my room

Verse 2

Em
Could I turn on the light
Emaddb13
Impress unknown eyes
Em6
Humour absorbs the thoughts
Bb
Lift up your sorted heads
Em
Played like dancing fools
Emaddb13
Turning the tension round
Em6                    Bb
Building up silent sounds

Bridge

E       Bb      E   Bb
  Just another day
E    Bb    E   Bb
  Oh in my room
E          Bb       E   Bb
  Struck out like before
E    Bb    E   Bb
  Oh in my room


Repeat E/Bb/E/Bb till end.

End on E.

===============================================================================