The Kooks - You Dont Love Me Chords & Tabs

 

You Dont Love Me Chords & Tabs

The Kooks Chords & Tabs

Version: 2 Type: Bass Tab

You Dont Love Me Bass Tab

The Kooks
You Donít Love Me

Verse 1
G ----------------------------------------------------------------------------|
D ----------------------------------------------------------------------------|
A ---------------------------------------5---5---5---5---5---5---5------------|
E ---5---5---5---5---5---5---5---5--------------------------------3h5---------|


Chorus 1
G--------------------------------------------------------------------------------|
D--------------------------------------------------------------------------------|
A-3---3---3-3-3-3---------------------------2---2---2-2-2-2-----2---2---2-2-2-2--|
E-------------------------3---3---3-3-3-3----------------------------------------|

G---------------------------------------------------------------------------------|
D---------------------------------------------------------------------------------|
A---------------------------------------------------------------------------------|
E-3---3---3-3-3-3------3---3---3-3-3-3------0---0---0-0-0-0------0---0---0-0-0-0--|


Verse 2
G ----------------------------------------------------------------------------|
D ----------------------------------------------------------------------------|
A ---------------------------------------7---7---7---7---7---7---7------------|
E ---7---7---7---7---7---7---7---7--------------------------------5h7---------|

[ Tab from: https://www.guitartabs.cc/tabs/t/the_kooks/you_dont_love_me_btab_ver_2.html ]
Middle 8
G-------------------------------------------------------------------------------|
D-------------------------------------------------------------------------------|
A-2---2---2-2-2-2-----2---2---2-2-2-2------2---2---2-2-2-2-----2---2---2-2-2-2--|
E-------------------------------------------------------------------------------|

G-------------------------------------------------------------------------------|
D-------------------------------------------------------------------------------|
A-------------------------------------------------------------------------------|
E-0---0---0-0-0-0-----0---0---0-0-0-0------5---5---5-5-5-5-----3---3---3-3-3-3--|


Continue verse 2 starting from arrow shown above.


Chorus 2

G--------------------------------------------------------------------------------|
D--------------------------------------------------------------------------------|
A-5---5---5-5-5-5---------------------------4---4---4-4-4-4-----4---4---4-4-4-4--|
E-------------------------5---5---5-5-5-5----------------------------------------|

G---------------------------------------------------------------------------------|
D---------------------------------------------------------------------------------|
A---------------------------------------------------------------------------------|
E-5---5---5-5-5-5------5---5---5-5-5-5------2---2---2-2-2-2------2---2---2-2-2-2--|


Guitar solo


Final Verse
G ----------------------------------------------------------------------------|
D ----------------------------------------------------------------------------|
A ---------------------------------------9---9---9---9---9---9---9------------|
E ---9---9---9---9---9---9---9---9--------------------------------7h9---------|