The Kooks - Naive Chords & Tabs

 

Naive Chords & Tabs

The Kooks Chords & Tabs

Version: 1 Type: Tab

Naive Tab

   
NAIVE- THE KOOKS

A crackin’ tune from a great album! 
Tabbed by Tom Corley (tomcorley55@hotmail.com)

Chords Used;
  G#sus4  G#m  E  G#@  B   B/F#7  D#m7	
e|--4------4---7---4---7----7------6----|
B|--4------4---9---4---7----7------7----|
G|--6------4---9---6---8----9------6----|
D|--6------6---9---4---9----8------8----|
A|--6------6---7---4---9----9------6----|
E|--4------4---x---6---7----7------x----|

         
INTRO/VERSE: (palm muted, staccato) 
  G#sus4	E	G#@
e|------------------------------------------------------------------|
B|----------------------------------9-x-----------------------------|
G|-----6-x-6-6-x-6-xxx----9-x-9-9-x-9-x--------6-xx-6-6-4-6-4-xxx---|
D|-----6-x-6-6-x-6-xxx-/9-9-x-9-9-x-9-x--------4-xx-4-4-4-4-4-xxx---|
A|----(6)--------------/7----------------------4-xx-----------------|
E|--4--------------------------------------4h6----------------------|
    D  D   U U D D U D  D D   U U   D U        D    U U U D U 
  ‘Im not sayin it was your fault…’

   B       B/F#7
e|--------------------||
B|--------------------||
G|----8-xx-9-9-x-9-x--||
D|----9-xx-8-8-x-8-x--||
A|----9-xx-9-9-x-9-x--||
E|-/7-----------------||
      D    U U   D 
‘you’re so na´ve yet so…’




CHORUS: (let chords ring)
       E	       B	       D#m7	       E
e|-----x----------------x---------x--------------------x-----------------|
B|-----9----------------7---------7--------------------9-----------------|
G|-----9----------------8---------6--------------------9-----------------|
D|-----9----------------9---------8--------------------9-----------------|
A|-----7----------------9---------6--------------------7-----------------|
E|-----x----------------7---------x--------------------x-----------------|
         ‘I know, she knows, I’m not fond of asking…     …true or false,    
[ Tab from: https://www.guitartabs.cc/tabs/t/the_kooks/naive_tab.html ]
            B	          D#m7
e|----------x--------------x------------|
B|----------7--------------7------------|
G|----------8--------------6------------|
D|----------9--------------8------------|
A|----------9--------------6------------|
E|----------7--------------x------------|
   it may be, shes still out to get me’

     E         G#m       
e|---x---------x---------x--------------------x------------------|
B|---9---------4---------7--------------------9------------------|
G|---9---------4---------6--------------------9------------------|
D|---9---------6---------8--------------------9------------------|
A|---7---------6---------6--------------------7------------------|
E|---x---------4---------x--------------------x------------------|
‘I know, she knows, I’m not fond of asking…’    ‘…true or false,

            B	          D#m7            E
e|----------x--------------x---------------x----||
B|----------7--------------7---------------9----||
G|----------8--------------6---------------9----||
D|----------9--------------8---------------9----||
A|----------9--------------6---------------7----||
E|----------7--------------x---------------x----||
   it may be, shes still out to get me’



BRIDGE SECTION (strum)
e|---------------------------------------------------------||
B|---------------------------------------------------------||
G|--4---/6---/8---/9----/16-------4---/6---/8---/9----/11--||
D|--6---/8---/9---/11---/16-------6---/8---/9---/11---/11--||
A|---------------------------------------------------------||
E|---------------------------------------------------------||

OUTRO (strum)
   E     D#m7  G#m   B
e|-7-----6-----4-----7-----------------||
B|-9-----7-----4-----7-----------------||
G|-9-----6-----4-----8-----------------||
D|-9-----8-----6-----9-----------------||
A|-7-----6-----6-----9-----------------||
E|-x-----x-----4-----7-----------------||
‘just don’t let me down…(hold on to this kite), just don’t let me down’

End on G#m.