The Klaxons - Its Not Over Yet Chords & Tabs

 

Its Not Over Yet Chords & Tabs

The Klaxons Chords & Tabs

Version: 1 Type: Bass Tab

Its Not Over Yet Bass Tab

   
Song: ITíS NOT OVER YET
Artist: KLAXONS
Album: MYTHS OF THE NEAR FUTURE

This is my first tab, I listened to the song and tabbed it out. Wicked album!
alkaline_scoundrel@hotmail.co.uk

Standard tuning : E, A, D, G

Intro
G--2~-----------------------------------------------------|
D---------------------------------------------------------|
A---------------------------------------------------------|
E---------------------------------------------------------| x2

Verse
G----2~---------------------------------------------------|
D---------------4~----------------------------------------|
A------------------------4~-----4~------------------------|
E---------------------------------------------------------| x4

Pre-Chorus
G----2~-----------------------------------------------------|
D---------------4~------------------------------------------|
A------------------------4~---------------------------------|
E-----------------------------------------------------------| x2

[ Tab from: https://www.guitartabs.cc/tabs/t/the_klaxons/its_not_over_yet_btab.html ]
Chorus
G----22222222------------------------------------------------|
D---------------44444444-------------------------------------|
A----------------------------4444444444444444----------------|
E------------------------------------------------------------| x3

G----22222222-----------------------------------------------|
D---------------44444444------------------------------------|
A----------------------------44444444--4--------------------|
E-----------------------------------------------------------|

Repeat

Pre-Chorus
G----2~-----------------------------------------------------|
D-----------------------------------------------------------|
A---------------------------------4~------------------------|
E-----------------------------------------------------------| x2

Chorus
G----22222222------------------------------------------------|
D---------------44444444-------------------------------------|
A----------------------------4444444444444444----------------|
E------------------------------------------------------------| x4

Outro
G----2~----------2~----------2~--------2~-------------------|
D-----------------------------------------------------------|
A-----------------------------------------------------------|
E-----------------------------------------------------------| x2

Very easy tab but sounds good.

Enjoy!!!!