The Hush Sound - Wine Red Chords & Tabs

 

Wine Red Chords & Tabs

The Hush Sound Chords & Tabs

Version: 2 Type: Tab

Wine Red Tab

   
This isn't exact, but it's close.  Please rate, and email corrections to smgshorewood@aol.com

CAPO 3

Am (strum once)
Who shot that arrow in your throat?
Who missed the crimson apple?
Am
It hung heavy on the tree above your head.
Am
This chaos, this calamity,
This garden once was perfect...
Am
Give your immortality to me-
I'll set you up against the stars.

e------88--8--8--8--88--8--8-------------------------------------------|
B------55--5--5--5--55--5--5-------------------------------------------|
G------55--5--5--5--55--5--5-------------------------------------------|
D------77--7--7--7--77--7--7-------------------------------------------|
A----------------------------------------------------------------------|
E----------------------------------------------------------------------|
	G   l   o   r   i   a....

e------------------------------------------------------------------------|
B------------33--3--3--3-------0---00---0-0------------------------------|
G------------22--2--2--2-------2---00---0-0------------------------------|
D------------00--0--0--0-------0---00---0-0------------------------------|
A------------------------------------------------------------------------|
E------------------------------------------------------------------------|
	We   lied,   we   canít   go   on,

e-------88--8--8--8--88--8--8-----------------------------------------------|
B------55--5--5--5---55--5--5-----------------------------------------------|
G------55--5--5--5--55--5--5--------------Am----------E---------------------|
D------77--7--7--7--77--7--7------------------------------------------------|
A---------------------------------------------------------------------------|
E---------------------------------------------------------------------------|
This   is   the   time   and   this   is   the   place   to be                alive.

e-----0---------------------------------------------------------|
B-----1---------------------------------------------------------|
G-----2---------------------------------------------------------|
D-----2---------------------------------------------------------|
A-----0---------------------------------------------------------|
E-----X---------------------------------------------------------|
	Who   shot   that   arrow   in   your   throat?

e-------------------------------------------------|
B-------------------------------------------------|
G-------------------------------------------------|
D------------------5-------------------------4----|
A-------------------------------------------------|
E-------------------------------------------------|
	Who   missed   the   crimson   apple?

e----------------------------------------------------------|
B----------------------------------------------------------|
G----------------------------------------------------------|
D----------------------------------------------------------|
A----------------------------------------------------------|
E----------------------------------------------------------|
	And   there   is   discord   in   the   garden   tonight.

	(F x4)		          	     (C x8)		    (G x8)
e-------1------1------1------1------0-------------------------3---------|
B-------1------1------1------1------1-------------------------0---------|
G-------2------2------2------2------0-------------------------0---------|
D-------3------3------3------3------2-------------------------0---------|
A-------3------3------3------3------3-------------------------2---------|
E-------1------1------1------1------x-------------------------3---------|
	The   sea   is   wine          red.       This   is   the   death   of   beauty.

	(F x4)		          	     (C x8)		    (G x8)
e-------1------1------1------1-------0---------------------------3---------|
B-------1------1------1------1-------1---------------------------0---------|
G-------2------2------2------2-------0---------------------------0---------|
D-------3------3------3------3-------2---------------------------0---------|
A-------3------3------3------3-------3---------------------------2---------|
E-------1------1------1-------1------x---------------------------3---------|
	The   doves   have          died,   the   lovers have   lied.

e------0-----------------------------------------------------------|
B------1--------------------~~5~~~~~~~~~~~~~~~~~~------------------|
G------2--------------0-2------------------------------------------|
D------2--------2-2------------------------------------------------|
A------0-----------------------------------------------------------|
E------x-----------------------------------------------------------|
		I   cut   the   arrow   from   your   neck

e--------1---------------------0--------------------------------------|
B----------~4~~-----------------~3~~----------------------------------|
G---------------------------------------------------------------------|
D---------------------------------------------------------------------|
A---------------------------------------------------------------------|
E---------------------------------------------------------------------|
	Stretched you        beneath the trees

e-------------------------1--0----------------0---------------------|
B-------------~~5~~-----4-----------3-----------0-------------------|
G-------2-2--------------------------------2--------------0---------|
D-------------------------------------------------------------------|
A-------------------------------------------------------------------|
E-------------------------------------------------------------------|
Among the roots and babyís breath, I  covered  us with   silver leaves


e------88--8--8--8--88--8--8-------------------------------------------|
B------55--5--5--5--55--5--5-------------------------------------------|
G------55--5--5--5--55--5--5-------------------------------------------|
D------77--7--7--7--77--7--7-------------------------------------------|
A----------------------------------------------------------------------|
E----------------------------------------------------------------------|
	G   l   o   r   i   a....
[ Tab from: https://www.guitartabs.cc/tabs/t/the_hush_sound/wine_red_tab_ver_2.html ]
e------------------------------------------------------------------------|
B------------33--3--3--3-------0---00---0-0------------------------------|
G------------22--2--2--2-------2---00---0-0------------------------------|
D------------00--0--0--0-------0---00---0-0------------------------------|
A------------------------------------------------------------------------|
E------------------------------------------------------------------------|
	We   lied,   we   canít   go   on,

e-------88--8--8--8--88--8--8-----------------------------------------|
B------55--5--5--5---55--5--5-----------------------------------------|
G------55--5--5--5--55--5--5--------------Am----------E---------------|
D------77--7--7--7--77--7--7------------------------------------------|
A---------------------------------------------------------------------|
E---------------------------------------------------------------------|
This   is   the   time   and   this   is   the   place   to be    alive.

	(F x4)		          	     (C x8)		    (G x8)
e-------1------1------1------1------0-------------------------3---------|
B-------1------1------1------1------1-------------------------0---------|
G-------2------2------2------2------0-------------------------0---------|
D-------3------3------3------3------2-------------------------0---------|
A-------3------3------3------3------3-------------------------2---------|
E-------1------1------1------1------x-------------------------3---------|
	The   sea   is   wine          red.       This   is   the   death   of   beauty.

	(F x4)		          	     (C x8)		    (G x8)
e-------1------1------1------1-------0---------------------------3---------|
B-------1------1------1------1-------1---------------------------0---------|
G-------2------2------2------2-------0---------------------------0---------|
D-------3------3------3------3-------2---------------------------0---------|
A-------3------3------3------3-------3---------------------------2---------|
E-------1------1------1-------1------x---------------------------3---------|
	The   doves   have          died,   the   lovers have   lied.

e--------------------------------0----------------------------------------|
B-----~5~------~5~~4~~4~~5~~----------------------------------------------|
G-----------------------------------------------------------------0-------|
D---------------------------------------------------------------2---------|
A-------------------------------------------------------------------------|
E-------------------------------------------------------------------------|
	INSTRUMENTAL SOLO

e-----------------0---1---0-----------------------------------------------|
B------------1------------------------------------------------------------|
G-------2-----------------------------------------------------------------|
D-------------------------------3---3---3---2---2---2---2-----------------|
A-------------------------------------------------------------------------|
E-------------------------------------------------------------------------|
	INSTRUMENTAL

e-----------------0---1---0-----------------------------------------------|
B------------1------------------------------------------------------------|
G-------2-----------------------------------------------------------------|
D-------------------------------3---3---3---2---2---2---2-----------------|
A-------------------------------------------------------------------------|
E-------------------------------------------------------------------------|
	INSTRUMENTAL

	(F x4)		          	     (C x8)		    (G x8)
e-------1------1------1------1------0-------------------------3---------|
B-------1------1------1------1------1-------------------------0---------|
G-------2------2------2------2------0-------------------------0---------|
D-------3------3------3------3------2-------------------------0---------|
A-------3------3------3------3------3-------------------------2---------|
E-------1------1------1------1------x-------------------------3---------|
	The   sea   is   wine          red.       This   is   the   death   of   beauty.

	(F x4)		          	     (C x8)		    (G x8)
e-------1------1------1------1-------0---------------------------3---------|
B-------1------1------1------1-------1---------------------------0---------|
G-------2------2------2------2-------0---------------------------0---------|
D-------3------3------3------3-------2---------------------------0---------|
A-------3------3------3------3-------3---------------------------2---------|
E-------1------1------1-------1------x---------------------------3---------|
	The   doves   have          died,   the   lovers have   lied.

	(F x4)		          	     (C x8)		    (G x8)
e-------1------1------1------1------0-------------------------3---------|
B-------1------1------1------1------1-------------------------0---------|
G-------2------2------2------2------0-------------------------0---------|
D-------3------3------3------3------2-------------------------0---------|
A-------3------3------3------3------3-------------------------2---------|
E-------1------1------1------1------x-------------------------3---------|
	The   sea   is   wine          red.       This   is   the   death   of   beauty.

	(F x4)		          	     (C x8)		    (G x8)
e-------1------1------1------1-------0---------------------------3---------|
B-------1------1------1------1-------1---------------------------0---------|
G-------2------2------2------2-------0---------------------------0---------|
D-------3------3------3------3-------2---------------------------0---------|
A-------3------3------3------3-------3---------------------------2---------|
E-------1------1------1-------1------x---------------------------3---------|
	The   doves   have          died,   the   lovers have   lied.

e------------------------------------------------------------------|
B------------------------------------------------------------------|
G-------------------0---2------------------------------------------|
D----------2---2---------------------------------------------------|
A------------------------------------------------------------------|
E------------------------------------------------------------------|


~  vibrato