The Hush Sound - Artist Chords & Tabs

 

Artist Chords & Tabs

The Hush Sound Chords & Tabs

Version: 1 Type: Chords

Artist Chords

   
-------------------------------------------------------------------------------
			     The Artist - The Hush Sound
-------------------------------------------------------------------------------
Tabbed by: *StraylightRun*
Email: caeticaslies@hotmail.com

Tuning: EADGBe Capo 1

This song is played by two guitars. One does the backing picking to the intro and the
and the other guitar strums throughout.

The chords used in this song are as followed;
     Am     C     G      F      F^     Em
e|----------------3-------------3-----------------------|
B|---1------1-----3------1------1-----------------------|
G|---2-------------------2------2-----------------------|
D|---2------2------------3------3------2----------------|
A|----------3-----2--------------------2----------------|
E|----------------3-------------------------------------|


(This is the picking for the intro and pre-verses)
Intro:
e|------------------------------------------------------|
B|-----4-7-4-2-0---4-7-4-2-0--2--4-0--2-0---------------|
G|------------------------------------------------------|
D|------------------------------------------------------|
A|------------------------------------------------------|
E|------------------------------------------------------| x2
While other guitars strums same chords as verses.

Verse:
Am                   C
I know that you're an artist
G                                     F       F^
But you're the hardest one to deal with
Am                C
Everything that you conceal 
  G                      F       F^
is revealed on your canvas

Am                        C
You find all of your ugly meanings 
G                                   F       F^
in all of the things I find beautiful. 
Am                     C
Do you see the fall is coming? 
G                       F       F^
Come, Iím falling into you. 


Chorus:
C                      G
You percieve all the things
Am                   Em
i'd never of known, oooh
C                         G
love, would you turn out the lights
                     Am    Em   -  let it ring.
Cause we're already home, home

[ Tab from: https://www.guitartabs.cc/tabs/t/the_hush_sound/artist_crd.html ]
Pre-verse:
e|------------------------------------------------------|
B|-----4-7-4-2-0---4-7-4-2-0--2--4-0--2-0---------------|
G|------------------------------------------------------|
D|------------------------------------------------------|
A|------------------------------------------------------|
E|------------------------------------------------------| x2
While other guitars strums same chords as verses.


Verse:
Am                    C
You painted me in pastel,
          G                           F       F^
Colours that don't show of any boldness,
Am                              C
Cause that's the way you'd love to see me;
G                                  F       F^
So delicate, so weak, so little purpose

Am                        C
But your eyes are made of charcol,
               G                               F       F^
They're black they're so cold, they're so imperfect
Am                     C
Because they see a sleeping world,
G                       F       F^
Where waking isn't worth it.


Chorus:
C                      G
You percieve all the things
Am                   Em
i'd never of known, oooh
C                         G
love, would you turn out the lights
                     Am    Em   -  let it ring.
Cause we're already home, home


Am      Am
Hoow, Hoow
F      Am       G              Am
Can you live without the lies?
Am        Am       F
Oooooh, oooooh, love
F        Am         G
I've had enough of you tonight


(slghtly diferent to other Chorus)
Chorus:
C               G
All of the things
Am                   Em
i'd never of known, oooh
C                         G
love, would you turn out the lights
                     Am    Em
Cause we're already home, home

Chorus:
C                      G
You percieve all the things
Am                   Em
i'd never of known, oooh
C                         G
love, would you turn out the lights
                     Am    Em   -  let it ring.
Cause we're already home, home

It's a really nice song and I think it's really worth learning, especially if you're
sing along to it or play it for someone else to sing!
This is my first tab but i'm very sure it's 100% acurate.

Any questions and email me.

Enjoy!
===============================================================================