The Hot Stewards - Tell It To My Heart Chords & Tabs

 

Tell It To My Heart Chords & Tabs

The Hot Stewards Chords & Tabs

Version: 1 Type: Bass Tab

Tell It To My Heart Bass Tab

   
---------------------------------------------------------------------------
                  TELL IT TO MY HEART  The Hot Stewards
---------------------------------------------------------------------------

Artist: The Hot Stewards
Artist's official website: http://www.thehotstewards.com/

Tabbed By : Hurm

Tuning: standard 5-string (BEADG)


Intro
G|----------------------------------|
D|----------------------------------|
A|-4~--6-6~--3~--8-8~--4~--6-6~--3~-|
E|----------------------------------|
B|----------------------------------|

Verse
G|---------------------------------|
D|---------------------------------|
A|---------------------------------|
E|---------------------------------|
B|-6-6-6-6-4-4-4-4-4-4-4-4-6-6-6-6-|

G|---------------------------------|
D|---------------------------------|
A|---------------------------------|
E|-----------------8-8-8-8-9-9-9-9-|
B|-6-6-6-6-4-4-4-4-----------------|

Pre-chorus
G|----------------------------------|
D|----------------------------------|
A|----------------------------------|
E|-99999999444444448888888899999999-|
B|----------------------------------|

G|----------------------------|
D|----------------------------|
A|----------------------------|
E|-9999999966666666888888888~-|
B|----------------------------|

Chorus
G|----------------------------------|
D|-------------------------33331111-|
A|-4-4-4-4-6-6-6-6-33333333---------|
E|----------------------------------|
B|----------------------------------|

G|----------------------------|
D|----------------------------|
A|-4-4-4-4-6-6-6-6-33333333---|
E|-------------------------1~-|
B|----------------------------|
[ Tab from: https://www.guitartabs.cc/tabs/t/the_hot_stewards/tell_it_to_my_heart_btab.html ]
Verse
G|---------------------------------|
D|---------------------------------|
A|---------------------------------|
E|---------------------------------|
B|-6-6-6-6-4-4-4-4-4-4-4-4-6-6-6-6-|

G|---------------------------------|
D|---------------------------------|
A|---------------------------------|
E|-----------------8-8-8-8-9-9-9-9-|
B|-6-6-6-6-4-4-4-4-----------------|

Pre-chorus
G|----------------------------------|
D|----------------------------------|
A|----------------------------------|
E|-99999999444444448888888899999999-|
B|----------------------------------|

G|----------------------------|
D|----------------------------|
A|----------------------------|
E|-9999999966666666888888888~-|
B|----------------------------|

Chorus
G|----------------------------------|
D|-------------------------33331111-|
A|-4-4-4-4-6-6-6-6-33333333---------|
E|----------------------------------|
B|----------------------------------|

G|----------------------------------|
D|----------------------------------|
A|-4-4-4-4-6-6-6-6-33333333---------|
E|-------------------------11111111-|
B|----------------------------------|

Bridge
G|--------------|
D|--------------|
A|--------------| 4x
E|-9~-11~-8~----|
B|-----------6~-|

Chorus
G|----------------------------------|
D|-------------------------33331111-| 
A|-4-4-4-4-6-6-6-6-33333333---------| 3x
E|----------------------------------|
B|----------------------------------|

G|----------------------------------|
D|----------------------------------|
A|-4-4-4-4-6-6-6-6-33333333---------|
E|-------------------------11111111-|
B|----------------------------------|

Ending
G|----------------------------------|
D|----------------------------------|
A|-444444446666666633333333---------| 2x
E|-------------------------11111111-|
B|----------------------------------|

G|----|
D|----|
A|----|
E|-1~-|
B|----|

| ~  vibrato
===========================================================================