The Hot Stewards - Never Gonna Give You Up Chords & Tabs

 

Never Gonna Give You Up Chords & Tabs

The Hot Stewards Chords & Tabs

Version: 1 Type: Bass Tab

Never Gonna Give You Up Bass Tab

   
---------------------------------------------------------------------------
	        NEVER GONNA GIVE YOU UP  The Hot Stewards
---------------------------------------------------------------------------

Artist: The Hot Stewards
Artist's official website: http://www.thehotstewards.com/

Tabbed By : Hurm

Tuning: standard 5-string (BEADG)


No bass in intro

G|------------|
D|------------|
A|-----3-~/5~-|
E|------------|
B|-3~~--------|

G|------------------------------|
D|------------------------------|
A|------------------------------|
E|-3-3-5~-5-5-7~-3-3-5~-7-7-7-7-|
B|------------------------------|

G|-------------------------------|
D|-----------------------5-5-5-5-|
A|-------------------------------|
E|-3-3-5~-2-2-7~-3-3-5~-3-3-3-3--|
B|-------------------------------|

Verse
G|----------------------------------|
D|----------------------------------|
A|----------------------------------| 2x
E|-77777777555555557777777755555555-|
B|----------------------------------|

G|-------------------------------|
D|---5-------7-------5-----------|
A|-------------------------------|
E|-33-3333355-5555533-33333-3-5~-|
B|-------------------------------|

Chorus
G|------------------------------|
D|------------------------------|
A|------------------------------|
E|-3-3-5~-5-5-7~-3-3-5~-7-7-7-7-|
B|------------------------------|

G|-------------------------------|
D|-------------------------------|
A|-----------------------5-5-5-5-|
E|-3-3-5~-2-2-7~-3-3-5~----------|
B|----------------------3-3-3-3--|
[ Tab from: https://www.guitartabs.cc/tabs/t/the_hot_stewards/never_gonna_give_you_up_btab.html ]
Verse
G|----------------------------------|
D|----------------------------------|
A|----------------------------------| 2x
E|-77777777555555557777777755555555-|
B|----------------------------------|

G|-------------------------------|
D|---5-------7-------5-----------|
A|-------------------------------|
E|-33-3333355-5555533-33333-3-5~-|
B|-------------------------------|

Chorus
G|------------------------------|
D|------------------------------|
A|------------------------------|
E|-3-3-5~-5-5-7~-3-3-5~-7-7-7-7-|
B|------------------------------|

G|-------------------------------|
D|-------------------------------|
A|-----------------------5-5-5-5-|
E|-3-3-5~-2-2-7~-3-3-5~----------|
B|----------------------3-3-3-3--|

Bridge
G|-------------|
D|-------------|
A|-------------| 4x
E|----3-3-3-5~-|
B|-3~----------|

G|-----------------------------------------------|
D|-----------------------------------------------|
A|-----------------------------------------------| 2x
E|-------2---4/5-------2---4/5-------2---4/5-----|
B|-3-3-3---3-----3-3-3---3-----3-3-3---3------4~-|

One chorus without bass, then:

Chorus
G|------------------------------|
D|------------------------------|
A|------------------------------|
E|-3-3-5~-5-5-7~-3-3-5~-7-7-7-7-|
B|------------------------------|

G|------------------------------|
D|-------------------------3/12-|
A|------------------------------|
E|-3-3-5~-2-2-7~-3-3-5~-3~~-----|
B|------------------------------|

| /  slide up
| ~  vibrato

===========================================================================