The Fray - You Found Me Acoustic Chords & Tabs

 

You Found Me Acoustic Chords & Tabs

The Fray Chords & Tabs

Version: 1 Type: Tab

You Found Me Acoustic Tab

Ok, so I just heard this song today, and it's pretty awsome
Decided it would sound good as an acoustic song, so I figured it out. It's pretty easy 
you know how to finger pick. Enjoy!! =]   Taylor Lane

P.S. This is my first tab, so i'm probably gonna get a few thing wrong, so if you find 
or just want to tell me how i did, email me at taylorlane1991@yahoo.com   Thanks!!! =]

Tuning: EADGBf#  the high e is just tuned up 2 half steps to an f#

Intro:
      f:----0-------0-------0-------0----------------------|
      B:--0---0---0---0---0---0---0---0--------------------|
      G:---------------------------------------------------|
      D:---------------------------------------------------|
      A:---------------------------------------------------|
      E:---------------------------------------------------|

Verse 1:
      f:----0-------0-------0-------0----------------------|
      B:--0---0---0---0---0---0---0---0--------------------|
      G:---------------------------------------------------|
      D:----------------4-------4--------------------------|
      A:4------4s6-----------------------------------------|
      E:---------------------------------------------------|

      f:----0-------0-------0-------0----------------------|
      B:--0---0---0---0---0---0---0---0--------------------|
      G:---------------------------------------------------|
      D:---------------------------------------------------|
      A:---------------------------------------------------|
      E:7-------7-------0-------0--------------------------|

Chorus:
         1e&a2e&a3e&a4e&a:1e&a2e&a3e&a4e&a
      f:-0---0-000---0-00-0---0-000---0-00------------------------|
      B:-0---0-000---0-00-0---0-000---0-00------------------------|
      G:-1---1-114---4-44-x---x-xx3---3-33-----------------   <---| 4 times
      D:-2---2-224---4-44-6---6-664---4-44------------------------|
      A:-2---2-222---2-22-6---6-664---4-44------------------------|
      E:---------x---x-xx-4---4-442---2-22------------------------|

Intro to V2:

      f:0---0-------0-------0-------0----|
      B:0-0---0---0---0---0---0---0---0--|
      G:4--------------------------------|
      D:4--------------------------------|
      A:2--------------------------------|
      E:---------------------------------|

Verse 2:

On this verse I like to get some momentum going and add thumb slaps, but you can do it 
was or do it the same as verse one, up to you =]

      f:---0---0---0---0---0---0---0---0---0---0---0---0---0---0---0---0---|
      B:---0---0---0---0---0---0---0---0---0---0---0---0---0---0---0---0---|
      G:-------------------------------------------------------------------|
      D:-----------------6-------6-----------------------------------------|
      A:-4------4s6--------------------------------------------------------|
      E:-----X-------X-------X-------X---7---X---7---X---0---X---0---X-----|

Chorus:
[ Tab from: https://www.guitartabs.cc/tabs/t/the_fray/you_found_me_acoustic_tab.html ]
         1e&a2e&a3e&a4e&a:1e&a2e&a3e&a4e&a
      f:-0---0-000---0-00-0---0-000---0-00------------------------|
      B:-0---0-000---0-00-0---0-000---0-00------------------------|
      G:-1---1-114---4-44-x---x-xx3---3-33-----------------   <---| 4 times
      D:-2---2-224---4-44-6---6-664---4-44------------------------|
      A:-2---2-222---2-22-6---6-664---4-44------------------------|
      E:---------x---x-xx-4---4-442---2-22------------------------|

Bridge:

      f:----0-------0-------0-------0----------------|
      B:--0---0---0---0---0---0---0---0--------------|
      G:----------------------------------     <-----| 8 times
      D:---------------------------------------------|
      A:---------------------------------------------|
      E:2------2s7------0-------0--------------------|

Pre-Chorus:
This is where its just Isaac singing half of the chorus by himself
         1 2 3 4 : 1 2 3 4 : 1 2 3 4 : 1 2 3 4
      f:-0---0-----0---0-----0---0-----0---0---------------|
      B:-0---0-----0---0-----0---0-----0---0---------------|
      G:---------------------------------------------------|
      D:-----------------------------------4---------------|
      A:---------------------------------------------------|
      E:-4---0-----7---2-----4---12----7---2---------------|

Chorus:
         1e&a2e&a3e&a4e&a:1e&a2e&a3e&a4e&a
      f:-0---0-000---0-00-0---0-000---0-00------------------------|
      B:-0---0-000---0-00-0---0-000---0-00------------------------|
      G:-1---1-114---4-44-x---x-xx3---3-33-----------------   <---| 4 times
      D:-2---2-224---4-44-6---6-664---4-44------------------------|
      A:-2---2-222---2-22-6---6-664---4-44------------------------|
      E:---------x---x-xx-4---4-442---2-22------------------------|


Outro:

      f:----0-------0-------0-------0----0-----------|
      B:--0---0---0---0---0---0---0---0--------------|
      G:4---------------------------------     <-----| 8 times
      D:4--------------------------------------------|
      A:2--------------------------------------------|
      E:0--------------------------------------------|


Lyrics:

Verse 1
I found god
On the corner of first and Amistad
Where the west was all but won
All alone, smoking his last cigarette
I Said where you been, he said ask anything
Where were you?
When everything was falling apart
All my days were spent by the telephone
It never rang
And all I needed was a call
That never came
To the corner of first and Amistad

Chorus
Lost and insecure
You found me, you found me
Lying on the floor
Surrounded, surrounded
Whyd you have to wait?
Where were you? Where were you?
Just a little late
You found me, you found me

Verse 2
In the end everyone ends up alone
Losing her, the only one whos ever known
Who I am, who Im not, who I want to be
No way to know how long she will be next to me

Chorus
Lost and insecure
You found me, you found me
Lying on the floor
Surrounded, surrounded
Whyd you have to wait?
Where were you, where were you?
Just a little late
You found me, you found me

Bridge
Early morning, City breaks
Ive been calling for years and years and years and years
And you never left me no messages
You never send me no letters
You got some kind of nerve, taking all I want

Pre-Chorus
Lost and insecure
You found me, you found me
Lying on the floor
Where were you where were you

Chorus
Lost and insecure
You found me, you found me
Lying on the floor
Surrounded, surrounded
Whyd you have to wait?
Where were you, where were you?
Just a little late
You found me, you found me

Whyd you have to wait?
To find me, to find me