The Fratellis - Got Ma Nuts From A Hippy Chords & Tabs

 

Got Ma Nuts From A Hippy Chords & Tabs

The Fratellis Chords & Tabs

Version: 1 Type: Bass Tab

Got Ma Nuts From A Hippy Bass Tab

song:Got ma nuts from a hippy
artist:The Fratellis
album:Costello Music
tabber:Cameron Forbes

Verse
G-------------|
D-7-55-------|
A--------7----|
E-5-----------| play this until I guess she talked with her mind

Pre Chorus
G----------------------------------------|-----------|
D----------------------------------------|-----------|
A----------------------------------------|------5-7--|
E-5-5-5-5-7-7-7-7 play this 4 times------|5-7-0------|
[ Tab from: https://www.guitartabs.cc/tabs/t/the_fratellis/got_ma_nuts_from_a_hippy_btab.html ]
Chorus (but its alright)
G--------------------------|----------|
D--------------------------|--7-55----|
A--------------------------|------57--|
E-55555555-44444444--------|-5--------|

Verse

Bridge
G-------------------------------|
D-------------0------------------|
A------0-2-32-0----------------|
E-0-2-3------------0-2-3-03-2---|

For guitar solo play pre verse

She whispered in my ear part
G---------------|
D---------------|
A-7-5----------|
E-0----5-4-3-0--|

was warm in the back of her van
G-----|
D--7--|
A---5-|
E-0--0|

Chorus

Verse until the end of song

This song is at least 80% correct please feel free to use and improve if you wish