The Enemy - Had Enough Chords & Tabs

 

Had Enough Chords & Tabs

The Enemy Chords & Tabs

Version: 4 Type: Tab

Had Enough Tab

----------------------------------------------------------------------------
			     Had Enough  The Enemy
----------------------------------------------------------------------------

Tabbed by: Sam-12345
Email: sam_burgess3@hotmail.com

Tuning: Standard


Intro/Verse

e|--------------------------------------------------------------------|
B|--------------------------------------------------------------------|
G|--------------------------------------------------------------------|
D|--11111111111111111111111111111111-9-9-9-9-9-9-9-9-8-8-8-8-8-8-9-9--|
A|--11111111111111111111111111111111-9-9-9-9-9-9-9-9-8-8-8-8-8-8-9-9-|
E|--9-9-9-9-9-9-9-9-9-9-9-9-9-9-9-9--7-7-7-7-7-7-7-7-6-6-6-6-6-6-7-7--|

Chorus
[ Tab from: https://www.guitartabs.cc/tabs/t/the_enemy/had_enough_tab_ver_4.html ]
e|--------------------------------------------------------------------|
B|--------------------------------------------------------------------|
G|----------------------------------6-6-6-6-6-6-6-6-6-6-6-6-6-6-6-6---|
D|--4-4-4-4-4-4-4-4-4-4-4-4-4-4-4-4-6-6-6-6-6-6-6-6-6-6-6-6-6-6-6-6---|
A|--4-4-4-4-4-4-4-4-4-4-4-4-4-4-4-4-4-4-4-4-4-4-4-4-4-4-4-4-4-4-4-4---|
E|--2-2-2-2-2-2-2-2-2-2-2-2-2-2-2-2-----------------------------------|

e|--------------------------------------------------------------------|
B|--------------------------------------------------------------------|
G|--------------------------------------------------------------------|
D|--4-4-4-4-4-4-4-4-4-4-4-4-4-4-4-4-6-6-6-6-6-6-6-6-6-6-6-6-6-6-6-6---|
A|--4-4-4-4-4-4-4-4-4-4-4-4-4-4-4-4-6-6-6-6-6-6-6-6-6-6-6-6-6-6-6-6---|
E|--2-2-2-2-2-2-2-2-2-2-2-2-2-2-2-2-4-4-4-4-4-4-4-4-4-4-4-4-4-4-4-4---|

Bridge

e|--------------------------------------------------------------------|
B|--------------------------------------------------------------------|
G|--6-----------------------------------------------------------------|
D|--6-----------------------------------------------------------------|
A|--4-----------------------------------------------------------------|
E|--------------------------------------------------------------------|