The Enemy - 51st State Chords & Tabs

 

51st State Chords & Tabs

The Enemy Chords & Tabs

Version: 1 Type: Bass Tab

51st State Bass Tab

   
-------------------------------------------------------------------------------
			     51st state  The Enemy
-------------------------------------------------------------------------------

Tabbed By : Big1Damo
e-mail:

Tuning:

G|---------------------------------------------------------------------------|
D|---------------------------------------------------------------------------|
A|---------------------------------------------------------------------------|
E|--5--5--5--5---------------------------------------------------------------|

[ Tab from: https://www.guitartabs.cc/tabs/t/the_enemy/51st_state_btab.html ]
G|----10\9-----10\9----------------------------------------------------------|
D|-------------------------4--7----------------------------------------------|
A|--7-------7--------5--5--------------4--5----------------------------------|
E|-------------------------------5--5----------------------------------------|


G|-----12\11-----12\11-------------------------------------------------------|
D|----------------------------6--9-------------------------------------------|
A|--9---------9---------7--7--------------6--7-------------------------------|
E|----------------------------------7--7-------------------------------------|

Thats all you need quite simple really. The slide is really quick so if it doesn't sound 
miss it out until you can play it fast enough.

| /  slide up
| \  slide down
| h  hammer-on
| p  pull-off
| ~  vibrato
| +  harmonic
| x  Mute note
===============================================================================