The Departure - All Mapped Out Chords & Tabs

 

All Mapped Out Chords & Tabs

The Departure Chords & Tabs

Version: 1 Type: Tab

All Mapped Out Tab

   
Like the boxer rebellion there is no tab for the departure anywhere so enjoy the wrath 
this great british band

Tuning: standard (E,A,D,G,B,E)


E]------------------------|----------------------------------|
B]------------------------|----------------------------------|
G]-----------------------|----------------------------------|
D]------------------------|----------------------------------|
A]--8-8--8\----------3-3-|----------------------------------|
E]---------------4-4------|--4-4-4-4-4-4-4-4-4-4-4-4--6-6-6--|
           X3                      last time ^

E]----------------------------------------|
B]----------------------------------------|
G]---10---10---10---10---10---10---12--12-|
D]-15---15---15---15---13---13---17--17---|
A]----------------------------------------|
E]----------------------------------------|

E]----------------------------------------|
A]----------------------------------------|
D]---10---10---10---10---12--12---5---5---|
G]-15---15---15---15---13---13---8---8----|
B]----------------------------------------|
E]----------------------------------------|

[ Tab from: https://www.guitartabs.cc/tabs/t/the_departure/all_mapped_out_tab.html ]
E]-----------------------------|
B]-----------------------------|
G]----------------------------|
D]-----------------------------|
A]----8-8------------------3-3-|
E]--13----13\--4-4-4-4--8-8----|


E]----------------------------|
B]----------------------------|
G]--10-10--1010--10-10--8-8--|
D]--10-10--10-10--10-10--8-8--|
A]--8--8---8--8---8--8---6-6--|
E]----------------------------|

E]--------------------------------|------------|
B]--------------------------------|--9---9---9-|
G]-------------------------------|-12--12--12-|
D]-6-6-6-6-6-6-6-6-6-6-6-6--8-8-8-|------------|
A]--------------------------------|------------|
E]--------------------------------|------------|

E]----------------------------|---------------------------|
B]----9---9---9-------4---4---|----9---9---9-------4------|
G]--12--12--12------5---3-----|--12--12--12------5---6--3-|
D]--------------------------5-|---------------------------|
A]----------------------------|---------------------------|
E]----------------------------|---------------------------|

E]-----4-----4-----------------|
B]-----4-----4-----------------|
G]----------------------------|
D]--3-3----3-3-----------------|
A]-----------------------------|
E]-----------------------------|

E]--------------------------|
B]--------------------------|
G]-------------------------|
D]--------------------------|
A]-----3-3------6-6---------|
E]-4-4------6-6---------1-1-|