The Beautiful Girls - Learn Yourself Chords & Tabs

 

Learn Yourself Chords & Tabs

The Beautiful Girls Chords & Tabs

Version: 1 Type: Tab

Learn Yourself Tab

   
The Beautiful Girls - Learn Yourself 

Now this is me first tabÖ and Iím only 17Ö So you canít blame me for trying


Tuning: D G C E G# F# (a double flat or tone down from normal tuning)

 

Intro
F#|------------------------------------------------|
G#|------------------------------------------------|
E |--------------5-x-5-----------------------------|
C |----7-x-7-----5-x-5-----5-x-5-----7-x-----------|
G |----7-x-7---3-3-x-3-----5-x-5-----7-x-----------|
D |--5-5-x-5-------------3-3-x-3---5-5-x---0h3-5---|
 

F#|------------------------------------------------|
G#|------------------------------------------------|
E |--------------5-x-5-----------------------------|
C |----7-x-7-----5-x-5-----5-x-5-----7-x-----------|
G |----7-x-7---3-3-x-3-----5-x-5-----7-x-----------|
D |--5-5-x-5-------------3-3-x-3---5-5-x---0h3-5---|
 

F#|------------------------------------------------|
G#|------------------------------------------------|
E |--------------5-x-5-----------------------------|
C |----7-x-7-----5-x-5-----5-x-5-----7-x-----------|
G |----7-x-7---3-3-x-3-----5-x-5-----7-x-----------|
D |--5-5-x-5-------------3-3-x-3---5-5-x---0h3-5---|
 
[ Tab from: https://www.guitartabs.cc/tabs/t/the_beautiful_girls/learn_yourself_tab.html ]
F#|------------------------------------------------|
G#|------------------------------------------------|
E |--------------5-x-5-----------------------------|
C |----7-x-7-----5-x-5-----5-x-5-----7-x-----------|
G |----7-x-7---3-3-x-3-----5-x-5-----7-x-----------|
D |--5-5-x-5-------------3-3-x-3---5-5-x---0h3-5---|
 
 
 
Verse 
F#|------------------------------------------------|
G#|------------------------------------------------|
E |--------------5-x-5-----------------------------|
C |----7-x-7-----5-x-5-----5-x-5-----7-x-----------|
G |----7-x-7---3-3-x-3-----5-x-5-----7-x-----------|
D |--5-5-x-5-------------3-3-x-3---5-5-x---0h3-5---|
 
F#|------------------------------------------------|
G#|------------------------------------------------|
E |--------------5-x-5-----------------------------|
C |----7-x-7-----5-x-5-----5-x-5-----7-x-----------|
G |----7-x-7---3-3-x-3-----5-x-5-----7-x-----------|
D |--5-5-x-5-------------3-3-x-3---5-5-x---0h3-5---|
 
F#|------------------------------------------------|
G#|------------------------------------------------|
E |--------------5-x-5-----------------------------|
C |----7-x-7-----5-x-5-----5-x-5-----7-x-----------|
G |----7-x-7---3-3-x-3-----5-x-5-----7-x-----------|
D |--5-5-x-5-------------3-3-x-3---5-5-x---0h3-5---|
 
 
F#|------------------------------------------------|
G#|------------------------------------------------|
E |--------------5-x-5-----------------------------|
C |----7-x-7-----5-x-5-----5-x-5-----7-x-----------|
G |----7-x-7---3-3-x-3-----5-x-5-----7-x-----------|
D |--5-5-x-5-------------3-3-x-3---5-5-x---0h3-1---|
 
 
Chorus
F#|------------------------------------------------|
G#|------------------------------------------------|
E |------------------------------------------------|
C |----3-x-3-----5-x-5-----7-x-7-----2-x-2---------|
G |----3-x-3-----5-x-5-----7-x-7-----2-x-2---------|
D |--1-1-x-1---3-3-x-3---5-5-x-5---0-0-x-0---------|
 
F#|------------------------------------------------|
G#|------------------------------------------------|
E |------------------------------------------------|
C |----3-x-3-----5-x-5-----7-x-7-----2-x-2---------|
G |----3-x-3-----5-x-5-----7-x-7-----2-x-2---------|
D |--1-1-x-1---3-3-x-3---5-5-x-5---0-0-x-0---------|
 
F#|------------------------------------------------|
G#|------------------------------------------------|
E |------------------------------------------------|
C |----3-x-3-----5-x-5-----7-x-7-----2-x-2---------|
G |----3-x-3-----5-x-5-----7-x-7-----2-x-2---------|
D |--1-1-x-1---3-3-x-3---5-5-x-5---0-0-x-0---------|
 
F#|--------------------|
G#|--------------------|
E |--------------------|
C |----3-x-3-----5-x-5-|
G |----3-x-3-----5-x-5-|
D |--1-1-x-1---3-3-x-3-|
 
Bridge (no vocals)
F#|------------------------------------------------|
G#|------------------------------------------------|
E |--------------5-x-5-----------------------------|
C |----7-x-7-----5-x-5-----5-x-5-----7-x-----------|
G |----7-x-7---3-3-x-3-----5-x-5-----7-x-----------|
D |--5-5-x-5-------------3-3-x-3---5-5-x---0h3-5---|
 
F#|------------------------------------------------|
G#|------------------------------------------------|
E |--------------5-x-5-----------------------------|
C |----7-x-7-----5-x-5-----5-x-5-----7-x-----------|
G |----7-x-7---3-3-x-3-----5-x-5-----7-x-----------|
D |--5-5-x-5-------------3-3-x-3---5-5-x---0h3-5---|
 
F#|------------------------------------------------|
G#|------------------------------------------------|
E |--------------5-x-5-----------------------------|
C |----7-x-7-----5-x-5-----5-x-5-----7-x-----------|
G |----7-x-7---3-3-x-3-----5-x-5-----7-x-----------|
D |--5-5-x-5-------------3-3-x-3---5-5-x---0h3-5---|
 
 
F#|------------------------------------------------|
G#|------------------------------------------------|
E |--------------5-x-5-----------------------------|
C |----7-x-7-----5-x-5-----5-x-5-----7-x-----------|
G |----7-x-7---3-3-x-3-----5-x-5-----7-x-----------|
D |--5-5-x-5-------------3-3-x-3---5-5-x---0h3-5---|
 
 
Verse 
F#|------------------------------------------------|
G#|------------------------------------------------|
E |--------------5-x-5-----------------------------|
C |----7-x-7-----5-x-5-----5-x-5-----7-x-----------|
G |----7-x-7---3-3-x-3-----5-x-5-----7-x-----------|
D |--5-5-x-5-------------3-3-x-3---5-5-x---0h3-5---|
 
F#|------------------------------------------------|
G#|------------------------------------------------|
E |--------------5-x-5-----------------------------|
C |----7-x-7-----5-x-5-----5-x-5-----7-x-----------|
G |----7-x-7---3-3-x-3-----5-x-5-----7-x-----------|
D |--5-5-x-5-------------3-3-x-3---5-5-x---0h3-5---|
 
F#|------------------------------------------------|
G#|------------------------------------------------|
E |--------------5-x-5-----------------------------|
C |----7-x-7-----5-x-5-----5-x-5-----7-x-----------|
G |----7-x-7---3-3-x-3-----5-x-5-----7-x-----------|
D |--5-5-x-5-------------3-3-x-3---5-5-x---0h3-5---|
 
 
F#|------------------------------------------------|
G#|------------------------------------------------|
E |--------------5-x-5-----------------------------|
C |----7-x-7-----5-x-5-----5-x-5-----7-x-----------|
G |----7-x-7---3-3-x-3-----5-x-5-----7-x-----------|
D |--5-5-x-5-------------3-3-x-3---5-5-x---0h3-5---|
 
 
Chorus
F#|------------------------------------------------|
G#|------------------------------------------------|
E |------------------------------------------------|
C |----3-x-3-----5-x-5-----7-x-7-----2-x-2---------|
G |----3-x-3-----5-x-5-----7-x-7-----2-x-2---------|
D |--1-1-x-1---3-3-x-3---5-5-x-5---0-0-x-0---------|
 
F#|------------------------------------------------|
G#|------------------------------------------------|
E |------------------------------------------------|
C |----3-x-3-----5-x-5-----7-x-7-----2-x-2---------|
G |----3-x-3-----5-x-5-----7-x-7-----2-x-2---------|
D |--1-1-x-1---3-3-x-3---5-5-x-5---0-0-x-0---------|
 
F#|------------------------------------------------|
G#|------------------------------------------------|
E |------------------------------------------------|
C |----3-x-3-----5-x-5-----7-x-7-----2-x-2---------|
G |----3-x-3-----5-x-5-----7-x-7-----2-x-2---------|
D |--1-1-x-1---3-3-x-3---5-5-x-5---0-0-x-0---------|
 
F#|--------------------|
G#|--------------------|
E |--------------------|
C |----3-x-3-----5-x-5-|
G |----3-x-3-----5-x-5-|
D |--1-1-x-1---3-3-x-3-|
 
 
Guitar Solo
All bends are bend & release.
F#|------------------------------------------------|
G#|-------------------------8--8/10-----10^--8-----|
E |---7^--5-----------7^---------------------------|
C |------------------------------------------------|
G |------------------------------------------------|
D |------------------------------------------------|
 
e|------------------------------------------------|
B|---10----8^--5--5--8p5--------------------------|
G|-----------------------7p5----------------------|
D|------------------------------7/----------------|
A|------------------------------------------------|
D|------------------------------------------------|
 
 
Chorus
F#|------------------------------------------------|
G#|------------------------------------------------|
E |------------------------------------------------|
C |----3-x-3-----5-x-5-----7-x-7-----2-x-2---------|
G |----3-x-3-----5-x-5-----7-x-7-----2-x-2---------|
D |--1-1-x-1---3-3-x-3---5-5-x-5---0-0-x-0---------|
 
F#|------------------------------------------------|
G#|------------------------------------------------|
E |------------------------------------------------|
C |----3-x-3-----5-x-5-----7-x-7-----2-x-2---------|
G |----3-x-3-----5-x-5-----7-x-7-----2-x-2---------|
D |--1-1-x-1---3-3-x-3---5-5-x-5---0-0-x-0---------|
 
F#|------------------------------------------------|
G#|------------------------------------------------|
E |------------------------------------------------|
C |----3-x-3-----5-x-5-----7-x-7-----2-x-2---------|
G |----3-x-3-----5-x-5-----7-x-7-----2-x-2---------|
D |--1-1-x-1---3-3-x-3---5-5-x-5---0-0-x-0---------|
 
F#|------------------------------------------------|
G#|------------------------------------------------|
E |------------------------------------------------|
C |----3-x-3-----5-x-5-----7-x-7-----2-x-2---------|
G |----3-x-3-----5-x-5-----7-x-7-----2-x-2---------|
D |--1-1-x-1---3-3-x-3---5-5-x-5---0-0-x-0---------|
 
F#|------------------------------------------------|
G#|------------------------------------------------|
E |------------------------------------------------|
C |----3-x-3-----5-x-5-----7-x-7-----2-x-2---------|
G |----3-x-3-----5-x-5-----7-x-7-----2-x-2---------|
D |--1-1-x-1---3-3-x-3---5-5-x-5---0-0-x-0---------|