The Amity Affliction - Youngbloods Chords & Tabs

 

Youngbloods Chords & Tabs

The Amity Affliction Chords & Tabs

Version: 1 Type: Bass Tab

Youngbloods Bass Tab

   
Tabbed By: Lorenz Esparcia
Profile: Lolorenz11
Email: unknown_132456@hotmail.com

Youngbloods
The Amity Affliction
Youngbloods

Took a while to tab and i realised there weren't any bass tabs for this song so yeah.

Sidenote: In a couple verses and in the chorus, the doublekicks are louder than the bass 
guitar and it sounds like you're meant to go with the bass drum but i listened very 
carefully and i've pointed out the parts that aren't meant to go with the bass 
drums so bare with meh.

Any questions just search my email address on facebook or message me on UG.

Intro (0:00-0:13)
F|---------|-------------------|-------------------|----------------------|
C|---------|-------------------|-------------------|----------------------|
G|---------|-------------------|-------------------|----------------------|
C|-7--7--7-|-5x-5x-5x--3--3--3-|-5x-5x-5x--7--7--7-|-10x10x10x--3--3--3-5x|

Verse (0:14-0:28)
F|----------------------------|-No-jumps-here,-just-strum--------| Donít go
C|----------------------------|----------------------------------| wtih kicks.
G|----------------------------|----------------------------------|
C|-777777-7-7-7---77777-10-10-|-3-3-3-3-3-3-3-3-3-3-5-5-5-5-5----| X2

(0:29-0:42)
F|-------------------------------------------|
C|-------------------------------------------|
G|-------------------------------------------|
C|-00-0-000000--0-000000-7-7-7-7-5-5-5555----| X2

(0:43-0:46)
F|----|--------------|
C|----|--------------|
G|----|--------------|
C|-3~-|-3x3x3x3x3x3x-|

Chorus (0:47-1:07)
F|-----------------|-------------|-------------------|-------------|
C|-----------------|-------------|-------------------|-------------|
G|-----------------|-------------|-------------------|-------------|
C|-3-3-3-3-3-3-3-3-|-3-3-3-7-7-7-|-5-5-5-5-5-5-5-5-5-|-5-5-5-7-7-7-| X3

Post-Chorus (1:08-1:14)
F|------------------------------------------|-----------------------------|
C|------------------------------------------|-----------------------------|
G|------------------------------------------|-----------------------------|
C|-3--3--3--3--3--3--3--3--3--3--3--3--3--3-|-3--3--3--3--3--3--3-5---5-7-|

Verse (1:15-1:29)
F|-----------------|-----------------|-----------------|-----------------|
C|-----------------|-----------------|-----------------|-----------------|
G|-----------------|-----------------|-----------------|-----------------|
C|-7-7-7-7-7-7-7-7-|-7-7-7-7-2-2-2-2-|-3-3-3-3-3-3-3-3-|-3-3-3-3-5-5-5-5-| X2
[ Tab from: https://www.guitartabs.cc/tabs/t/the_amity_affliction/youngbloods_btab.html ]
(1:30-1:44)
F|----------------------------|-No-jumps-here,-just-strum-----| Like 1st-|
C|----------------------------|------------------------------------------| verse.
G|----------------------------|------------------------------------------|
C|-777777-7-7-7---77777-10-10-|-3-3-3-3-3-3-3-3-3-3-5-5-5-5-5------------| X2

(1:45-2:13)
F|-----------------------------|
C|-----------------------------|
G|-----------------------------|
C|-0-0-0~-0-00x-0-00x-00-00-00-| X2

F|-----------------------------|
C|-----------------------------|
G|-----------------------------|
C|-7-7-7~-7-77x-7-77x-77-77-77-| X2

F|-----------------------------|-----------------------------|
C|-----------------------------|-----------------------------|
G|-----------------------------|-----------------------------|
C|-3-3-3~-3-33x-3-33x-33-33-33-|-3-3-3~-3-33x-3-33x-00-00-00-|

F|-----------------------------|-----------------------------|
C|-----------------------------|-----------------------------|
G|-----------------------------|-----------------------------|
C|-7-7-7~-7-77x-7-77x-77-77-77-|-7-7-7~-7-77x-10-10-10-0-----|

Chorus (2:14-2:34)
F|-----------------|-------------|-------------------|-------------|
C|-----------------|-------------|-------------------|-------------|
G|-----------------|-------------|-------------------|-------------|
C|-3-3-3-3-3-3-3-3-|-3-3-3-7-7-7-|-5-5-5-5-5-5-5-5-5-|-5-5-5-7-7-7-| X3

Final Verse (2:35-2:55)
F|------------------------------------------------------------------|
C|------------------------------------------------------------------|
G|------------------------------------------------------------------|
C|-3-3-3-3-3-3-3-3-3-3-3-3-3-3-3-3-3-3-3-3-3-3-3-3-3-3-3-3-3-3-3-3--|

F|-------------------------|------------------|-----------------|
C|-------------------------|------------------|-----------------|
G|-------------------------|------------------|-----------------|
C|-10-10-10-10-10-10-10-10-|-10-5-5-5-5-5-5-5-|-7-7-7-7-7-7-7-7-|

F|-----------------|-------------------------|------------------|
C|-----------------|-------------------------|------------------|
G|-----------------|-------------------------|------------------|
C|-7-7-7-7-7-7-7-7-|-10-10-10-10-10-10-10-10-|-10-5-5-5-5-5-5-5-|

F|-----------------|----------------------|--------|--------|
C|-----------------|----------------------|--------|--------|
G|-----------------|----------------------|--------|--------|
C|-3-3-3-3-3-3-3-3-|-5-5-5-5-5------------|--------|--------|

No bass here (2:56-3:11)

Final Chorus (3:12-3:40)
F|-----------------|-------------|-------------------|-------------|
C|-----------------|-------------|-------------------|-------------|
G|-----------------|-------------|-------------------|-------------|
C|-3-3-3-3-3-3-3-3-|-3-3-3-7-7-7-|-5-5-5-5-5-5-5-5-5-|-5-5-5-7-7-7-| X3

Just let it ring till end.