The Amity Affliction - Stairway To Hell Chords & Tabs

 

Stairway To Hell Chords & Tabs

The Amity Affliction Chords & Tabs

Version: 1 Type: Bass Tab

Stairway To Hell Bass Tab

Stairway to hell- The amity affliction
Intro 

F#|------7---------5---------------|------5-----5-----------------------|
C#|--------------------------------|------------------------------------|
G#|---5--------3----------3--3---1-|--3-----3-------3---0---------------|
C#|--------------------------------|------------------------8-----------|

 

F#|------7---------5---------------|------5-----5-------7---7-----------|
C#|--------------------------------|------------------------------------|
G#|---5--------3----------3--3---1-|--3-----3-------3-------------------|
C#|--------------------------------|------------------------------------|

 
That part   

F#|--------------------------------|------------------------------------|
C#|--------------------------------|------------------------------------| 
G#|--------------------------------|------------------------------------|
C#|---0---10---8-----7---10---12---|---0---10---12---------10---0-------|


Soft part
F#|--------------------------------|------------------------------------|
C#|--------------------------------|------------------------------------| 
G#|--------------------------------|------------------------------------|
C#|---0---10---------7---10--------|---0---10--------------10---0-------|



F#|--------------------------------------------------|
C#|--------------------------------------------------|
G#|--------------------------------------------------|
C#|---88888888-7777-10-10-10h12---0-0--0000012p10---|



------------------------------------------------------|
------------------|------|----------------------------|
------------------|--x-3-|----------------------------|
-0-0--00000--10---|------|--88888888-7777--7----------|


F#|--------------------------------|--------------------------------------------------|
C#|--------------------------------|--------------------------------------------------| 
G#|--------------------------------|--------------------------------------------------|
C#|---0---10---8-----7---10---12---|---0---10---12-----7---10---0-0-0-0-0-0-0-0-------|


F#|-------------------------------------------------|
C#|-------------------------------------------------|
G#|-------------------------------------------------|
C#|---10h12--0-0-0-00-0-0-0---14h15--0-0-0-00-0-0-0-|

----------------------------------------------|
----------------------------------------------|
---------------------------------[x3]---------|
-8---55555555--3333--10-10-10-10--------------|


[ Tab from: https://www.guitartabs.cc/tabs/t/the_amity_affliction/stairway_to_hell_btab.html ]
F#|---------------------------------------------------------------------|
C#|---------------------------------------------------------------------|
G#|---------------------------------------------------------------------|
C#|---10h12--00-0-0-0-0-0-0-0-0----55555555--3333--10-10-10-10----------|



F#|--------------------------------------------------|
C#|--------------------------------------------------|
G#|--------------------------------------------------|
C#|---88888888-7777-10-10-10h12---0-0--0000012h10---|


------------------------------------------------------|
------------------|------|----------------------------|
------------------|--x-3-|----------------------------|
-0-0--00000--10---|------|--88888888-7777--7----[10]--|


F#|------7---------5---------------|------5-----5-----------------------|
C#|--------------------------------|------------------------------------|
G#|---5--------3----------3--3---1-|--3-----3-------3---0---------------|
C#|--------------------------------|------------------------8-----------|


F#|---------------------------------------------------------------------|
C#|---------------------------------------------------------------------|
G#|---------------------------------------------------------------------|
C#|---0----10----8----------7----10----12-------------------------------|


F#|---------------------------------------------------------------------|
C#|---------------------------------------------------------------------|
G#|---------------------------------------------------------------------|
C#|---0----10----8----------7----10----0-0-0-0-0-0-0-0-0----------------|

   
F#|----------------------------------------------------|
C#|----------------------------------------------------|
G#|------------------------[x4]------------------------|
C#|---0----10----8----7--------------------------------|
     (^pause after playing this twice, then continue)

F#|-------------------------------------------------------------------------|
C#|--------------------------------------------------------------[x3]-------|
G#|-------------------------------------------------------------------------|
C#|----------0000-0000-0-0000-0000-0-0000-0000-0--8-8-8--5-5-5--------------|



F#|------------------------------------------------------|
C#|------------------------------------------------------| 
G#|------------------------------------------------------|
C#|----------0000-0000-0-0000-0000-0-0000-0000-0---------|

Repeat until the end