Terminal - Dark Chords & Tabs

 

Dark Chords & Tabs

Terminal Chords & Tabs

Version: 1 Type: Tab

Dark Tab

Dark solo tabs by Terminal,

Tabbed by: tED(L)

well I found that this solo hadnít been tabbed yet so Iíve given it a go and here it isÖÖÖ


Solo: Part 1
e|-----------------13----------13-----------13------------------------|
B|--13/16-13----13----16----13----16------13--161315------------------|
G|-----------15----------15-----------1515----------13-13-12-12-13-13-|
D|--------------------------------------------------13-13-12-12-13-13-|
A|--------------------------------------------------11-11-10-10-11-11-|
E|--------------------------------------------------------------------|


Part 2
e|--------------------------------------------------------------------------|
B|-14-13----------------14-13-----------------------------------------------|
G|-------13-15-13-13-13-------13-15-13-13-13-15b-13-12h13-12----------------|
D|-----------------------------------------------------------13-13-13/15\13-|
A|--------------------------------------------------------------------------|
E|--------------------------------------------------------------------------|

[ Tab from: https://www.guitartabs.cc/tabs/t/terminal/dark_tab.html ]
Part 3
e|--16r-15r----16r-15r-----16-15----16-15----16-15----16-15----16-----------|
B|---------16r--------16r--------16-------16------16--------16----16--------|
G|--------------------------------------------------------------------------|
D|--------------------------------------------------------------------------|
A|--------------------------------------------------------------------------|
E|--------------------------------------------------------------------------|


Part 4
e|--16/18-16/18-16/18-16/18-16/18-16/18-16/18-16/18-16/18-16/18-16/18-16/18-|
B|--------------------------------------------------------------------------|
G|--------------------------------------------------------------------------|
D|--------------------------------------------------------------------------|
A|--------------------------------------------------------------------------|
E|--------------------------------------------------------------------------|

e|-16/18-16/18-16/18-16/18-16/18-18b-16-15------|
B|-----------------------------------------16r--|
G|----------------------------------------------|
D|----------------------------------------------|
A|----------------------------------------------|
E|----------------------------------------------|

-----
 Key
-----
| b bend note
| ~ vibrato
| h hammer on
| p pull off
| / slide up
| \ slide down
| r let ring

Im 90% sure its right though it might be a little confusing when you first try it out, 
listen to the song and itíll all come together!!!..God Bless.