Tera Melos - Melody 6 Chords & Tabs

 

Melody 6 Chords & Tabs

Tera Melos Chords & Tabs

Version: 1 Type: Bass Tab

Melody 6 Bass Tab

Tab: Melody 6 (7th Heaven) By Tera Melos
Alastair Hunter


Intro
x------------------------|-----------------------|
x----------------11-11\--|----------------14-11--|
x---------7h9/11-11-11---|---------7h9/11-12-11--|
x---0h7-9----------------|---0h7-9---------------| x4


Post Intro

x--------------------------------------|
x--------------------------------------|
x--7-7-7-7-7-7---7-7-7-7-7-7-7-7-------|
x--4-4-4-4-4-4---4-4-4-4-4-4-4-4-------| X1
   . . . . . .   . . . . . . . .

x--------------------------------------|
x--------------------------------------|
x-7-7-7-7-7-7--7-7-7-7-7-7-7-7---------|
x4-4-4-4-4-4--5-5-5-5-5-5-5-5---------|  X3
  . . . . . .  . . . . . . . .


(Bass slide on E string from 12)

Intro again
G----------------11-----|------------------14-11--|
D----------------11-11--|------------------12-11--|
A---------7h9/11-11-11--|---------7h9/11----------|
E---0h7-9---------------|---0h7-9-----------------| x4



Slower part
x----------------|----------------------------|
x----------------|----------------------------|
x9~-9~-9~-9~-9~-|--11.11.11.10.10.10.10.10---|
x----------------|----------------------------|

x----------------|------------------------|
x----------------|-------9---11---9-------|
x9~-9~-9~-9~-9~-|--11---------------11~--|
x----------------|------------------------|

x----------------|----------------------------|
x----------------|-------11---9---11p9-------|
x9~-9~-9~-9~-9~-|---11----------------11-----|
x----------------|----------------------------|

[ Tab from: https://www.guitartabs.cc/tabs/t/tera_melos/melody_6_btab.html ]
(Triplet section)
x-----------------------|----------------------------|
x-----------------------|----------------------------|
x----------------------|--9-9h11-11p99h11-11p9--99-|
x-5--555--555--555--55--|----------------------------| x2



                               
x----------------|----------------------------|
x----------------|--7p6/11~-9-11--9-----------|
x---------------|------------------11p10p9-7~|    
x-55555555--555-|----------------------------|   x2

x---------------------|----------------------|
x---------------------|----------------------|
x--------------------|----------------------|
x-55555555-5555-5555-|--4444-4444-4444-4444-|   x2




x----------------------------------|
x----------------------------------|
x---------------------------------|
x--4-0-4-7-4---4-0-4-7-4---4-7-4-7-| x 8

(Silent part before mad melodic thing)


x------------------|-----------------------------|
x------------------|-----------------------------|
x-777-777-777-777/|/121212-121212-121212-121212-|
x------------------|-----------------------------|

x--------------------|--------------------------|
x--------------------|--------------------------|
x-777-----777-------|-121212-000-121212-000----|
x------000-----000---|--------------------------|

x------------------|--------------------------|
x------------------|--------------------------|
x-777-777-7.----\-|-121212-121212-000-000----|
x------------------|--------------------------|

x---------------------|---------------------------------------|
x---------------------|-----------------------11p9------------|
x-777-777-777-111111-|-121212-121212-121212-------11/10/9/7~-|
x---------------------|---------------------------------------|


End of song is just noise - played on E mostly.