Tegan And Sara - Nineteen Chords & Tabs

 

Nineteen Chords & Tabs

Tegan And Sara Chords & Tabs

Version: 2 Type: Tab

Nineteen Tab

   
Credit to quintwinsfan for the chords for this song, i just added the chords to 
the lyrics and changed the tabs for the bridge.

Tegan and Sara  The Con
Capo: 4

Chords Used:
e|--0--|--0--|-----|-----|-----|-----|-----|
B|--1--|--0--|--0--|--0--|--0--|--0--|--1--|
G|--0--|--0--|--0--|--0--|--0--|--0--|--0--|
D|--2--|--2--|--7--|--0--|--5--|--5--|--0--|
A|--3--|--2--|--5--|--2--|--3--|--2--|--2--|
E|-----|--0--|-----|--3--|-----|-----|--3--|
    C    Em   Gadd9   G    C2    Em2  Cmaj9



                      C             Em       Gadd9                   
I felt you in my legs before I ever met you
                C                  Em         Gadd9
And when I laid beside you for the first time I told you
                 C                      Em
I feel you in my heart and I don't even know you 
                     C    Em   G
And now we're saying bye, bye, bye
                 C    Em   G
Now we're saying bye, bye, bye


Chorus:
  C2  Em2  Cmaj9 C2   Em2  Cmaj9
I was nine-teen, call-ing




                      C             Em          Gadd9
I felt you in my life before I ever thought to
                     C               Em             Gadd9
Feel the need to lay down beside you and tell you
                 C                      Em        Gadd9
I feel you in my heart and I don't even know you
                     C    Em   G
And now we're saying bye, bye, bye
                 C    Em   G
Now we're saying bye, bye, bye


Chorus:
  C2  Em2  Cmaj9 C2   Em2  Cmaj9
I was nine-teen, call me
  C2  Em2  Cmaj9 C2   Em2  Cmaj9
I was nine-teen, call me
  

[ Tab from: https://www.guitartabs.cc/tabs/t/tegan_and_sara/nineteen_tab_ver_2.html ]
Bridge:
e|-----------------------------------------------------------------|
B|-----0-------0-------0-------0-------0-------0-------1-------1---|
G|---0---0---0---0---0---0---0---0---0---0---0---0---0---0---0---0-|
D|-----------------------------------------------------------------|
A|-7-------7-------5-------5-----------------------3-------3-------|
E|---------------------------------3-------3-----------------------|
   Flew home  back to where we met stayed inside I was so upset

e|-----------------------------------------------------------------|
B|-----0-------0-------0-------0-------0-------0-------1-------1---|
G|---0---0---0---0---0---0---0---0---0---0---0---0---0---0---0---0-|
D|-----------------------------------------------------------------|
A|-7-------7-------5-------5-----------------------3-------3-------|
E|---------------------------------3-------3-----------------------|
  Cooked up a plan so good except I was all alone you were all I had

e|-----------------------------------------------------------------|
B|-----0-------0-------1-------1-------0-------0-------0-------0---|
G|---0---0---0---0---0---0---0---0---0---0---0---0---0---0---0---0-|
D|-----------------------------------------------------------------|
A|-2-------2-------3-------3---------------------------------------|
E|---------------------------------3-------3-------3-------3-------|
  Love You                         You were all I had

e|-----------------------------------------------------------------|
B|-----0-------0-------1-------1-------0-------0-------0-------0---|
G|---0---0---0---0---0---0---0---0---0---0---0---0---0---0---0---0-|
D|-----------------------------------------------------------------|
A|-2-------2-------3-------3---------------------------------------|
E|---------------------------------3-------3-------3-------3-------|
  Love me                         I was yours right?

e|---------------------------------|
B|-----0-------0-------0-------0---|
G|---0---0---0---0---0---0---0---0-|
D|---------------------------------|
A|---------------------------------|
E|-3-------3-------3-------3-------|
   I was yours right?
 

Chorus:
  C2  Em2  Cmaj9 C2   Em2  Cmaj9
I was nine-teen, call me
  C2  Em2  Cmaj9 C2   Em2  Cmaj9
I was nine-teen, call me