Taylor Swift - White Horse Acoustic Chords & Tabs

 

White Horse Acoustic Chords & Tabs

Taylor Swift Chords & Tabs

Version: 1 Type: Tab

White Horse Acoustic Tab

   
----------------------------------------------------------------------------
                    WHITE HORSE (ACOUSTIC) - Taylor Swift
----------------------------------------------------------------------------
Tabbed by: Barry Miles

This is just a little rendition I put together for some kids I teach. It's
 pretty simple, took a few shortcuts around some chords (remember,
 students), but all together sounds like a nice little solo performance.

(let ring throughout)

Verse/Intro:
e|----------3----|----------3----|----------3----|----------3----|
B|-1--x-1-----1--|-1--x-1-----1--|-1--x-1-----1--|-1--x-1-----1--|
G|----x----------|----x----------|----x----------|----x----------| x4
D|----x----------|-3--x-3--------|----x----------|-3--x-3--------|
A|-3--x-3--------|---------------|-0--x-0--------|---------------|
E|---------------|---------------|---------------|---------------|

Say you're sorry that face of an angel comes out just when you need it to
As I pace back and forth all this time, 'cause I honestly believed in you

Prechorus:
e|----------3----|----------3----|-------3-----3---|-------------|
B|-1--x-1-----1--|-1--x-1-----1--|-----1---1-----1-|-0-----------|
G|----x----------|----x----------|---0-------0-----|-------------|
D|----x----------|-3--x-3--------|-0---------------|-------------|
A|-0--x-0--------|---------------|-----------------|-------------|
E|---------------|---------------|-----------------|-------------|

Holdin' on, the days drag on, stupid girl, I should have known, I should have known

Chorus (D=Down strum, U=Up strum):

  C                 Am                F                 G
| D   D U   U D U | D   D U   U D U | D   D U   U D U | D   D U   U D U |      x2

That I'm not a princess, this ain't a fairytale, I'm not the one you'll sweep off 
	her feet, lead her up the stairwell
This ain't Hollywood, this is a small town, I was a dreamer before you went and let 	me down

   Am7    G/Bsus4   Fsus2
e|-3------3-------|-3---------------|----------3----|----------3----|
B|-1------1-------|-1---------------|-1--x-1-----1--|-1--x-1-----1--|
G|-0------0-------|-2---------------|----x----------|----x----------|
D|-2------0-------|-3---------------|----x----------|-3--x-3--------|
A|-0------2-------|-----------------|-3--x-3--------|---------------|
E|----------------|-----------------|---------------|---------------|

Now its too late for you and your White Horse, to come around.
[ Tab from: https://www.guitartabs.cc/tabs/t/taylor_swift/white_horse_acoustic_tab.html ]
Verse/Prechorus:
Maybe I was naÔve, got lost in your eyes, I never really had a chance
My mistake, I didn't know to be in love you had to fight to have the upper hand.
I had so many dreams about you and me, happy endings; now I know

Chorus

Solo:
e|-----1---0-------|-----1---0-------|-----1---0-------|-------------------|
B|-------------1---|-------------1---|-------------1---|-3-----------------|
G|-----------------|-2---------------|-0---------------|-0-----------------|
D|-2---------------|-----------------|-3---------------|-0-----------------|
A|-3---------------|-0---------------|-----------------|-------------------|
E|-----------------|-----------------|-----------------|-------------------|

Bridge:

  Am      G/B       F                 C       G/B       F
| D   D   D   D   | D   D U   U D U | D   D   D   D   | D   D U   U D U |

And there you are on your knees, begging for forgiveness, begging for me

  C       G/B       F
| D   D U D   D U | D   D U   U D U 

Just like I always wanted, but I'm so 

e|---------1-------|---------------|
B|-----3-----3---3-|-3-------------|
G|---3---3-----3---|-3-------------|
D|-3---------------|---------------|
A|-----------------|---------------|
E|-----------------|---------------|

  Sorry...

Last Chorus:
e|-----3-----3-----|-----3-----3-----|-----3-----3-----|---------3-------|
B|---1-----1---1---|---1-----1---1---|---1-----1---1---|-----1-----1-----|
G|---------------0-|---------------0-|---------------0-|---0---0-----0---|
D|-----------------|-----------------|-3-----3---------|-----------------|
A|-3-----3---------|-0-----0---------|-----------------|-2-------------2-|
E|-----------------|-----------------|-----------------|-----------------|

Cause Iím not your princess, this ainít a fairytale, 
	Iím gonna find someone, Some day, who might actually treat me well.

  C                 Am                F                 G
| D   D U   U D U | D   D U   U D U | D   D U   U D U | D   D U   U D U |  

This is a big world, that was a small town, 
	there in my rear view mirror, disappearing now.

And it's too late for you and your White Horse,
Now its too late for you and your White Horse
To catch me now

(End with verse riff then C)