Taking Back Sunday - One-eighty By Summer Chords & Tabs

 

One-eighty By Summer Chords & Tabs

Taking Back Sunday Chords & Tabs

Version: 3 Type: Bass Tab

One-eighty By Summer Bass Tab

   
Basically a modification on the other version, but I'm pretty sure this is correct:

 
Tabbed By : Hanson
e-mail: justshort179@spoofer.com

Tuning: E A D G


slide up/
slide down\


Intro (0:06)
G|------|----------------------------------------|
D|------|----------------------------------------|
A|------|-------05---555532----3303303---33030---|
E|--12/-|-000023-----------3------------------32-|
  
(0:13)
G|----------------------------------------|
D|----------------------------------------|
A|-------05---555532----3303303---33030---|
E|---0023-----------3------------------32-|
  
(0:19)
G|----------------------------------------|
D|----------------------------------------|
A|-------05---555532----3303303---33030---|
E|--00023-----------3------------------32-|

(0:25)
G|----------------------------------------|
D|----------------------------------------|
A|-------05---555532----3303303---33030---|
E|--00023-----------3------------------32-|

Verse (0:31) x2
G|-----------------------|
D|-----------------------|
A|-3-3---777---2-2---3-3-|
E|--3-----------3-----3--|
[ Tab from: https://www.guitartabs.cc/tabs/t/taking_back_sunday/one_eighty_by_summer_btab_ver_3.html ]
Pre-Chorus (0:44)     
G|-------------------------------------------|
D|-------------------------------------------|
A|-3-3-3333/77777777---22222222---33333333---|
E|--3----------------------------------------|
  
(0:50)     
G|-------------------------------------------|
D|-------------------------------------------|
A|--3333333/77777777---22222222---33333333---|
E|-3-----------------------------------------|
  
(0:56)
G|----------------------------------------|
D|----------------------------------------|
A|-------05---555532----3303303---33030---|
E|-000023-----------3------------------32-|
  
(1:03)
G|----------------------------------------|
D|----------------------------------------|
A|-------05---555532----3303303---33030---|
E|---0023-----------3------------------32-|
  
(1:09)
G|----------------------------------------|
D|----------------------------------------|
A|-------05---555532----3303303---33030---|
E|--00023-----------3------------------32-|

(1:16)
G|----------------------------------------|
D|----------------------------------------|
A|-------05---555532----3303303---33030---|
E|--00023-----------3------------------32-|

Verse (1:21) x2
G|-----------------------|
D|-----------------------|
A|-3-3---777---2-2---3-3-|
E|--3-----------3-----3--|

Pre-Chorus (1:34)     
G|-------------------------------------------|
D|-------------------------------------------|
A|-3-3-3333/77777777---22222222---33333333---|
E|--3----------------------------------------|
  
(1:40)     
G|-------------------------------------------|
D|-------------------------------------------|
A|--3333333/77777777---22222222---33333333---|
E|-3-----------------------------------------|

Bridge (1:47)
G|-------------------------------------------|
D|---9-(x16)---------------------------------|
A|---------------7-(x16)---------------------|
E|---------------------------3-(x32)---------|

[Repeat following 6 timesólet the 3 ring the last time]
G|-------------------------------------------|
D|-------------------------------------------|
A|-------------------------------------------|
E|--7-(x16)------5-(x16)------3-(x32)--------|