Taking Back Sunday - Makedamnsure Chords & Tabs

 

Makedamnsure Chords & Tabs

Taking Back Sunday Chords & Tabs

Version: 5 Type: Tab

Makedamnsure Tab

   
Title  MakeDamnSure
Artist- Taking Back Sunday
Album  Louder Now

Tabbed by: Larry A

Tuning: Half-Step Down (Eb Bb Gb Db Ab Eb)
                       (D# A# F# C# G# D#)
Guitar 1  Slight Distortion
Guitar 2  Distortion

 ___________________
| Intro (0:00-0:13) |
|___________________|

Guitar 1
eb| |---------------------------------|---------------------------------|
Bb| |---------------------------------|---------------------------------|
Gb| |---------------------------------|---------------------------------|
Db| |-----4---------------4-------4---|-----4---------------5-----------|
Ab| |-----------------2-2-----5-5-----|-----------------3-3-------------|
Eb| |-3-3-----------------------------|-0(0)----------------------------|
          You've got this new head     I got my veins all tangled close
          filled up with smoke and
Guitar 1
eb| |---------------------------------|---------------------------------|
Bb| |---------------------------------|---------------------------------|
Gb| |---------------------------------|---------------------2-----------|
Db| |-----4---------------4-------4---|-----4-------------2-------------|
Ab| |-----------------2-2-------------|-----------------0---------------|
Eb| |-3-3---------------------2-2-----|-0(0)----------------------------|
          To the jukebox bars               The safest place to hide    |
          you frequent                                                  |
Guitar 2                                                                |
eb| |---------------------------------|---------------------------------|
Bb| |---------------------------------|---------------------------------|
Gb| |---------------------------------|---------------------------------|
Db| |---------------------------------|---------------------------7-7-7-|
Ab| |---------------------------------|---------------------------7-7-7-|
Eb| |---------------------------------|---------------------------5-5-5-|

 ___________________
| Verse (0:14-0:28) |
|___________________|

Guitar 1
eb| |---------------------------------|---------------------------------|
Bb| |---------------------------------|---------------------------------|
Gb| |---------------------------------|---------------------------------|
Db| |-----4---------------4-------4---|-----4---------------5-----------|
Ab| |-----------------2-2-----5-5-----|-----------------3-3-------------|
Eb| |-3-3-----------------------------|-0(0)----------------------------|
          A long night spent with           You start shaking at the    |
          your obvious weakness             thought          you are    |
Guitar 2                                                                |
eb| |---------------------------------|---------------------------------|
Bb| |---------------------------------|---------------------------------|
Gb| |-----------------4-4-4-4-7-7-7-7-|-----------------5-5-5-5-5-5-5-5-|
Db| |-5-5-5-5-5-5-4-5-4-4-4-4-7-7-7-7-|-2-2-2-2-2-5-4-5-5-5-5-5-5-5-5-5-|
Ab| |-5-5-5-5-5-5-5-5-2-2-2-2-5-5-5-5-|-2-2-2-2-2-2-2-2-3-3-3-3-3-3-3-3-|
Eb| |-3-3-3-3-3-3-3-3-----------------|-0-0-0-0-0-0-0-0-----------------|
      * * * * * * * * * * * * * * * *   * * * * * * * * * * * * * * * *

Guitar 1
eb| |---------------------------------|---------------------------------|
Bb| |---------------------------------|---------------------------------|
Gb| |---------------------------------|---------------------2-----------|
Db| |-----4---------------4-------4---|-----4-------------2-------------|
Ab| |-----------------2-2-------------|-----------------0---------------|
Eb| |-3-3---------------------2-2-----|-0(0)----------------------------|
          Everything I want 'cause you are everything I'm not           |
         (Everything I want)              (everything I'm not)          |
                                                                        |
Guitar 2                                                                |
eb| |---------------------------------|---------------------------------|
Bb| |---------------------------------|---------------------------------|
Gb| |-----------------4-4-4-4---------|-----------------2-2-2-2-2-2-2-2-|
Db| |-5-5-5-5-5-5-4-5-4-4-4-4-4-4-4-4-|-2-2-2-2-2-2-2-2-2-2-2-2-2-2-2-2-|
Ab| |-5-5-5-5-5-5-5-5-2-2-2-2-4-4-4-4-|-2-2-2-2-2-2-2-2-0-0-0-0-0-0-0-0-|
Eb| |-3-3-3-3-3-3-3-3---------2-2-2-2-|-0-0-0-0-0-0-0-0-----------------|
      * * * * * * * * * * * * * * * *   * * * * * * * *(* * * * * * * *)

 ________________________
| Pre-Chorus (0:28-0:42) |
|________________________|

Guitar 1
eb| |------------------------19-------|-------------------------22------|
Bb| |--19----20----19----20------20---|--19----20----19----20------20---|
Gb| |---------------------------------|---------------------------------|
Db| |17----17----17----17-------------|16----16----16----16-------------|
Ab| |---------------------------------|---------------------------------|
Eb| |---------------------------------|---------------------------------|
      And we lay, we lay together        too close, too close           |
                     just not                    (Close is close enough)|
                                                                        |
Guitar 2                                                                |
eb| |---------------------------------|---------------------------------|
Bb| |---------------------------------|---------------------------------|
Gb| |-5-5-5-5-5-5-5-5-5-5-5-5-5-5-5-5-|-4-4-4-4-4-4-4-4-7-7-7-7-7-7-7-7-|
Db| |-5-5-5-5-5-5-5-5-5-5-5-5-5-5-5-5-|-5-5-5-5-5-5-5-5-7-7-7-7-7-7-7-7-|
Ab| |-3-3-3-3-3-3-3-3-3-3-3-3-3-3-3-3-|-2-2-2-2-2-2-2-2-5-5-5-5-5-5-5-5-|
Eb| |---------------------------------|---------------------------------|

Guitar 1
eb| |------------------------19-------|-------------------------22~-----|
Bb| |--19----20----19----20------20---|---19----20----19----20----------|
Gb| |---------------------------------|---------------------------------|
Db| |17----17----17----17-------------|-16----16----16----16------------|
Ab| |---------------------------------|---------------------------------|
Eb| |---------------------------------|---------------------------------|
      And we lay, we lay together        too close, too close           |
                     just not                              I just wanna |
                                                                        |
Guitar 2                                                                |
eb| |---------------------------------|---------------------------------|
Bb| |---------------------------------|---------------------------------|
Gb| |-5-5-5-5-5-5-5-5-5-5-5-5-5-5-5-5-|-4-4-4-4-4-4-4-4-7-7-7-7-7-7-7-7-|
Db| |-5-5-5-5-5-5-5-5-5-5-5-5-5-5-5-5-|-5-5-5-5-5-5-5-5-7-7-7-7-7-7-7-7-|
Ab| |-3-3-3-3-3-3-3-3-3-3-3-3-3-3-3-3-|-2-2-2-2-2-2-2-2-5-5-5-5-5-5-5-5-|
Eb| |---------------------------------|---------------------------------|

 ____________________
| Chorus (0:42-0:55) |
|____________________|

Guitar 1 & 2
eb| |---------------------------------|---------------------------------|
Bb| |---------------------------------|---------------------------------|
Gb| |---------------------------------|-7-7-7-7-7-7-7-7-7-7-7-7-7-7-7-7-|
Db| |-5-5-5-5-5-5-5-5-5-5-5-5-5-5-5-5-|-7-7-7-7-7-7-7-7-7-7-7-7-7-7-7-7-|
Ab| |-5-5-5-5-5-5-5-5-5-5-5-5-5-5-5-5-|-5-5-5-5-5-5-5-5-5-5-5-5-5-5-5-5-|
Eb| |-3-3-3-3-3-3-3-3-3-3-3-3-3-3-3-3-|---------------------------------|
      Break you down so badly                              I just wanna
                         (Well I trip over everything you said)

Guitar 1 & 2
eb| |---------------------------------|---------------------------------|
Bb| |---------------------------------|---------------------------------|
Gb| |-4-4-4-4-4-4-4-4-4-4-4-4-4-4-4-4-|-5-5-5-5-5-5-5-5-5-5-5-5-5-5-5-5-|
Db| |-5-5-5-5-5-5-5-5-5-5-5-5-5-5-5-5-|-5-5-5-5-5-5-5-5-5-5-5-5-5-5-5-5-|
Ab| |-2-2-2-2-2-2-2-2-2-2-2-2-2-2-2-2-|-3-3-3-3-3-3-3-3-3-3-3-3-3-3-3-3-|
Eb| |---------------------------------|---------------------------------|
      Break you down so badly
                                (In the worst way...)
 ___________________
| Verse (0:55-1:23) |
|___________________|

Guitar 1
eb| |---------------------------------|---------------------------------|
Bb| |---------------------------------|---------------------------------|
Gb| |---------------------------------|---------------------------------|
Db| |-----4---------------4-------4---|-----4---------------5-----------|
Ab| |-----------------2-2-----5-5-----|-----------------3-3-------------|
Eb| |-3-3-----------------------------|-0(0)----------------------------|
      My inarticulate store bought      hangover hobby kit in time

Guitar 1
eb| |---------------------------------|---------------------------------|
Bb| |---------------------------------|---------------------------------|
Gb| |---------------------------------|---------------------2-----------|
Db| |-----4---------------4-------4---|-----4-------------2-------------|
Ab| |-----------------2-2-------------|-----------------0---------------|
Eb| |-3-3---------------------2-2-----|-0(0)----------------------------|
                           It says, "You, oh, you are so cool"  It said |
     (Time...)                                                          |
                                                                        |
Guitar 2                                                                |
eb| |---------------------------------|---------------------------------|
Bb| |---------------------------------|---------------------------------|
Gb| |---------------------------------|---------------------------------|
Db| |---------------------------------|---------------------------7-7-7-|
Ab| |---------------------------------|---------------------------7-7-7-|
Eb| |---------------------------------|---------------------------5-5-5-|

Guitar 1
eb| |---------------------------------|---------------------------------|
Bb| |---------------------------------|---------------------------------|
Gb| |---------------------------------|---------------------------------|
Db| |-----4---------------4-------4---|-----4---------------5-----------|
Ab| |-----------------2-2-----5-5-----|-----------------3-3-------------|
Eb| |-3-3-----------------------------|-0(0)----------------------------|
     "Scissor shaped    you are red,    violent red"      You hollow out|
      across the bed,                                                   |
                                                                        |
Guitar 2                                                                |
eb| |---------------------------------|---------------------------------|
Bb| |---------------------------------|---------------------------------|
Gb| |-----------------4-4-4-4-7-7-7-7-|-----------------5-5-5-5-5-5-5-5-|
Db| |-5-5-5-5-5-5-4-5-4-4-4-4-7-7-7-7-|-2-2-2-2-2-5-4-5-5-5-5-5-5-5-5-5-|
Ab| |-5-5-5-5-5-5-5-5-2-2-2-2-5-5-5-5-|-2-2-2-2-2-2-2-2-3-3-3-3-3-3-3-3-|
Eb| |-3-3-3-3-3-3-3-3-----------------|-0-0-0-0-0-0-0-0-----------------|
      * * * * * * * * * * * * * * * *   * * * * * * * * * * * * * * * *

Guitar 1
eb| |---------------------------------|---------------------------------|
Bb| |---------------------------------|---------------------------------|
Gb| |---------------------------------|---------------------2-----------|
Db| |-----4---------------4-------4---|-----4-------------2-------------|
Ab| |-----------------2-2-------------|-----------------0---------------|
Eb| |-3-3---------------------2-2-----|-0(0)----------------------------|
      my hungry eyes      You hollow out my hungry eyes...              |
                                    (out my hungry eyes...)             |
                                                                        |
Guitar 2                                                                |
eb| |---------------------------------|---------------------------------|
Bb| |---------------------------------|---------------------------------|
Gb| |-----------------4-4-4-4---------|-----------------2-2-2-2-2-2-2-2-|
Db| |-5-5-5-5-5-5-4-5-4-4-4-4-4-4-4-4-|-2-2-2-2-2-2-2-2-2-2-2-2-2-2-2-2-|
Ab| |-5-5-5-5-5-5-5-5-2-2-2-2-4-4-4-4-|-2-2-2-2-2-2-2-2-0-0-0-0-0-0-0-0-|
Eb| |-3-3-3-3-3-3-3-3---------2-2-2-2-|-0-0-0-0-0-0-0-0-----------------|
      * * * * * * * * * * * * * * * *   * * * * * * * *(* * * * * * * *)

 ________________________
| Pre-Chorus (1:23-1:36) |
|________________________|

Guitar 1
eb| |------------------------19-------|-------------------------22------|
Bb| |--19----20----19----20------20---|--19----20----19----20------20---|
Gb| |---------------------------------|---------------------------------|
Db| |17----17----17----17-------------|16----16----16----16-------------|
Ab| |---------------------------------|---------------------------------|
Eb| |---------------------------------|---------------------------------|
      And we lay, we lay together        too close, too close           |
                     just not                    (Close is close enough)|
                                                                        |
Guitar 2                                                                |
eb| |---------------------------------|---------------------------------|
Bb| |---------------------------------|---------------------------------|
Gb| |-5-5-5-5-5-5-5-5-5-5-5-5-5-5-5-5-|-4-4-4-4-4-4-4-4-7-7-7-7-7-7-7-7-|
Db| |-5-5-5-5-5-5-5-5-5-5-5-5-5-5-5-5-|-5-5-5-5-5-5-5-5-7-7-7-7-7-7-7-7-|
Ab| |-3-3-3-3-3-3-3-3-3-3-3-3-3-3-3-3-|-2-2-2-2-2-2-2-2-5-5-5-5-5-5-5-5-|
Eb| |---------------------------------|---------------------------------|
[ Tab from: https://www.guitartabs.cc/tabs/t/taking_back_sunday/makedamnsure_tab_ver_5.html ]
Guitar 1
eb| |------------------------19-------|---------------------------------|
Bb| |--19----20----19----20------20---|--19----20----19----20\----------|
Gb| |---------------------------------|---------------------------------|
Db| |17----17----17----17-------------|16----16----16----16-------------|
Ab| |---------------------------------|---------------------------------|
Eb| |---------------------------------|---------------------------------|
      And we lay, we lay together        too close, too close           |
                     just not                              I just wanna |
                                                                        |
Guitar 2                                                                |
eb| |---------------------------------|---------------------------------|
Bb| |---------------------------------|---------------------------------|
Gb| |-5-5-5-5-5-5-5-5-5-5-5-5-5-5-5-5-|-4-4-4-4-4-4-4-4-7-7-7-7---------|
Db| |-5-5-5-5-5-5-5-5-5-5-5-5-5-5-5-5-|-5-5-5-5-5-5-5-5-7-7-7-7-5-5-5-5-|
Ab| |-3-3-3-3-3-3-3-3-3-3-3-3-3-3-3-3-|-2-2-2-2-2-2-2-2-5-5-5-5-5-5-5-5-|
Eb| |---------------------------------|-------------------------3-3-3-3-|
                                                                * * * *

 ____________________
| Chorus (1:37-2:04) |
|____________________|

Guitar 1
eb| |---------------------------------|---------------------------------|
Bb| |o--------------------------------|---------------------------------|
Gb| |---------------------------------|-7-7-7-7-7-7-7-7-7-7-7-7-7-7-7-7-|
Db| |-5-5-5-5-5-5-5-5-5-5-5-5-5-5-5-5-|-7-7-7-7-7-7-7-7-7-7-7-7-7-7-7-7-|
Ab| |o5-5-5-5-5-5-5-5-5-5-5-5-5-5-5-5-|-5-5-5-5-5-5-5-5-5-5-5-5-5-5-5-5-|
Eb| |-3-3-3-3-3-3-3-3-3-3-3-3-3-3-3-3-|---------------------------------|
   1. Break you down so badly                              I just wanna
                         (Well I trip over everything you said)
   2. Break you down so badly                              I just wanna
                         (Well I trip over everything you said)

Guitar 1
eb| |---------------------------------|---------------------------------|
Bb| |---------------------------------|--------------------------------o|
Gb| |-4-4-4-4-4-4-4-4-4-4-4-4-4-4-4-4-|-5-5-5-5-5-5-5-5-5-5-5-5-5-5-5-5-|
Db| |-5-5-5-5-5-5-5-5-5-5-5-5-5-5-5-5-|-5-5-5-5-5-5-5-5-5-5-5-5-5-5-5-5-|
Ab| |-2-2-2-2-2-2-2-2-2-2-2-2-2-2-2-2-|-3-3-3-3-3-3-3-3-3-3-3-3-3-3-3-3o|
Eb| |---------------------------------|---------------------------------|
   1. Break you down so badly
                                (In the worst way...)
   2. Break you down so badly                     Worst way...
                                (In the worst way...)

 ____________________
| Bridge (2:04-2:45) |
|____________________|

Guitar 1
eb| |---------------------------------|---------------------------------|
Bb| |-8---8---8---8---8---8---8---8---|-8---8---8---8---8---8---8---8---|
Gb| |---9---9---9---9---9---9---9---9-|---9---9---9---9---9---9---9---9-|
Db| |---------------------------------|---------------------------------|
Ab| |---------------------------------|---------------------------------|
Eb| |---------------------------------|---------------------------------|
                                                         I'm gunna make

Guitar 1
eb| |---------------------------------|---------------------------------|
Bb| |-8---8---8---8---8---8---8---8---|-7---7---7---7---7---7---7---7---|
Gb| |---9---9---9---9---9---9---9---9-|---9---9---9---9---9---9---9---9-|
Db| |---------------------------------|---------------------------------|
Ab| |---------------------------------|---------------------------------|
Eb| |---------------------------------|---------------------------------|
      Damn             sure...          that you can't ever leave No you

Guitar 1
eb| |---------------------------------|---------------------------------|
Bb| |-5---5---5---5---5---5---5---5---|-5---5---5---5---5---5---5---5---|
Gb| |---7---7---7---7---7---7---7---7-|---5---5---5---5---5---5---5---5-|
Db| |---------------------------------|---------------------------------|
Ab| |---------------------------------|---------------------------------|
Eb| |---------------------------------|---------------------------------|
      won't ever get too far from me you won't ever get too 
                                         far from me I'll make

Guitar 1
eb| |---------------------------------|---------------------------------|
Bb| |-8---8---8---8---8---8---8---8---|-7---7---7---7---7---7---7---7---|
Gb| |---9---9---9---9---9---9---9---9-|---9---9---9---9---9---9---9---9-|
Db| |---------------------------------|---------------------------------|
Ab| |---------------------------------|---------------------------------|
Eb| |---------------------------------|---------------------------------|
      Damn             sure...          that you can't ever leave No you|
     (Damn             sure...          that you can't ever leave)      |
                                                                        |
Guitar 2                                                                |
eb| |---------------------------------|---------------------------------|
Bb| |---------------------------------|---------------------------------|
Gb| |-9~-(9-9-9-9-9-9-9-9-9-9-9-9-9-9)|11~(1111111111111111111111111111)|
Db| |-x--(x-x-x-x-x-x-x-x-x-x-x-x-x-x)|-x-(-x-x-x-x-x-x-x-x-x-x-x-x-x-x)|
Ab| |-7~-(7-7-7-7-7-7-7-7-7-7-7-7-7-7)|-9~(-9-9-9-9-9-9-9-9-9-9-9-9-9-9)|
Eb| |---------------------------------|---------------------------------|

Guitar 1
eb| |---------------------------------|---------------------------------|
Bb| |---------------------------------|---------------------------------|
Gb| |17171717161616161414141412121212-|17171717161616161414141412121212-|
Db| |-x-x-x-x-x-x-x-x-x-x-x-x-x-x-x-x-|-x-x-x-x-x-x-x-x-x-x-x-x-x-x-x-x-|
Ab| |15151515141414141212121210101010-|15151515141414141212121210101010-|
Eb| |---------------------------------|---------------------------------|
      won't ever get too far from me you won't ever get too far from me |
                                                                        |
Guitar 2                                                                |
eb| |---------------------------------|---------------------------------|
Bb| |---------------------------------|---------------------------------|
Gb| |-9-9-9-9-7-7-7-7-5-5-5-5-4-4-4-4-|-9-9-9-9-7-7-7-7-5-5-5-5-4-4-4-4-|
Db| |-x-x-x-x-x-x-x-x-x-x-x-x-x-x-x-x-|-x-x-x-x-x-x-x-x-x-x-x-x-x-x-x-x-|
Ab| |-7-7-7-7-5-5-5-5-3-3-3-3-2-2-2-2-|-7-7-7-7-5-5-5-5-3-3-3-3-2-2-2-2-|
Eb| |---------------------------------|---------------------------------|

Guitar 1
eb| |---------------------------------|---------------------------------|
Bb| |---------------------------------|---------------------------------|
Gb| |17171717161616161414141412121212-|171717171616161614141414---------|
Db| |-x-x-x-x-x-x-x-x-x-x-x-x-x-x-x-x-|-x-x-x-x-x-x-x-x-x-x-x-x---------|
Ab| |15151515141414141212121210101010-|151515151414141412121212---------|
Eb| |---------------------------------|---------------------------------|
      won't ever get too far from me you won't ever get too far I just  |
           (ever get too far from me)         (ever get too far) wanna  |
                                                                        |
Guitar 2                                                                |
eb| |---------------------------------|---------------------------------|
Bb| |---------------------------------|---------------------------------|
Gb| |-9-9-9-9-7-7-7-7-5-5-5-5-4-4-4-4-|-9-9-9-9-7-7-7-7-5-5-5-5---------|
Db| |-x-x-x-x-x-x-x-x-x-x-x-x-x-x-x-x-|-x-x-x-x-x-x-x-x-x-x-x-x---------|
Ab| |-7-7-7-7-5-5-5-5-3-3-3-3-2-2-2-2-|-7-7-7-7-5-5-5-5-3-3-3-3---------|
Eb| |---------------------------------|---------------------------------|

 ____________________
| Chorus (2:45-3:12) |
|____________________|

Guitar 1
eb| |---------------------------------|---------------------------------|
Bb| |---------------------------------|---------------------------------|
Gb| |---------------------------------|-7-7-7-7-7-7-7-7-7-7-7-7-7-7-7-7-|
Db| |-5-5-5-5-5-5-5-5-5-5-5-5-5-5-5-5-|-7-7-7-7-7-7-7-7-7-7-7-7-7-7-7-7-|
Ab| |-5-5-5-5-5-5-5-5-5-5-5-5-5-5-5-5-|-5-5-5-5-5-5-5-5-5-5-5-5-5-5-5-5-|
Eb| |-3-3-3-3-3-3-3-3-3-3-3-3-3-3-3-3-|---------------------------------|
      Bring you down so badly                              I just wanna |
                         (Well I trip over everything you said)         |
                                                                        |
Guitar 2                                                                |
eb| |---------------------------------|---------------------------------|
Bb| |---------------------------------|---------------------------------|
Gb| |--12--12--12--12--12--12--12--12-|--19--19--19--19--19--19--19--19-|
Db| |---------------------------------|---------------------------------|
Ab| |10--10--10--10--10--10--10--10---|17--17--17--17--17--17--17--17---|
Eb| |---------------------------------|---------------------------------|

Guitar 1
eb| |---------------------------------|---------------------------------|
Bb| |---------------------------------|---------------------------------|
Gb| |-4-4-4-4-4-4-4-4-4-4-4-4-4-4-4-4-|-5-5-5-5-5-5-5-5-5-5-5-5-5-5-5-5-|
Db| |-5-5-5-5-5-5-5-5-5-5-5-5-5-5-5-5-|-5-5-5-5-5-5-5-5-5-5-5-5-5-5-5-5-|
Ab| |-2-2-2-2-2-2-2-2-2-2-2-2-2-2-2-2-|-3-3-3-3-3-3-3-3-3-3-3-3-3-3-3-3-|
Eb| |---------------------------------|---------------------------------|
      Bring you down so badly                  Worst way I'm gunna make |
                                (In the worst way...)                   |
                                                                        |
Guitar 2                                                                |
eb| |---------------------------------|---------------------------------|
Bb| |---------------------------------|---------------------------------|
Gb| |--16--16--16--16--16--16--16--16-|--17--17--17--17--17--17--17--17-|
Db| |---------------------------------|---------------------------------|
Ab| |14--14--14--14--14--14--14--14---|15--15--15--15--15--15--15--15---|
Eb| |---------------------------------|---------------------------------|

Guitar 1
eb| |---------------------------------|---------------------------------|
Bb| |---------------------------------|---------------------------------|
Gb| |---------------------------------|-7-7-7-7-7-7-7-7-7-7-7-7-7-7-7-7-|
Db| |-5-\-----5-5-5-5-5-5-5-5-5-5-5-5-|-7-7-7-7-7-7-7-7-7-7-7-7-7-7-7-7-|
Ab| |-5-\-----5-5-5-5-5-5-5-5-5-5-5-5-|-5-5-5-5-5-5-5-5-5-5-5-5-5-5-5-5-|
Eb| |-3-\-----3-3-3-3-3-3-3-3-3-3-3-3-|---------------------------------|
      Damn       sure... I just wanna   Bring you down so badly         |
                                                        I just wanna    |
                                                                        |
Guitar 2                                                                |
eb| |------------------------19-------|-------------------------22------|
Bb| |--------20----19----20------20---|--19----20----19----20------20---|
Gb| |---------------------------------|---------------------------------|
Db| |------------17----17-------------|16----16----16----16-------------|
Ab| |---------------------------------|---------------------------------|
Eb| |---------------------------------|---------------------------------|

Guitar 1
eb| |---------------------------------|---------------------------------|
Bb| |---------------------------------|---------------------------------|
Gb| |-4-4-4-4-4-4-4-4-4-4-4-4-4-4-4-4-|-5-5-5-5-5-5-5-5-5-5-5-5-5-5-5-5~|
Db| |-5-5-5-5-5-5-5-5-5-5-5-5-5-5-5-5-|-5-5-5-5-5-5-5-5-5-5-5-5-5-5-5-5~|
Ab| |-2-2-2-2-2-2-2-2-2-2-2-2-2-2-2-2-|-3-3-3-3-3-3-3-3-3-3-3-3-3-3-3-3~|
Eb| |---------------------------------|---------------------------------|
      Bring you down so badly                     Worst way             |
                                (In the worst way...)                   |
                                                                        |
Guitar 2                                                                |
eb| |------------------------19-------|-------------------------22------|
Bb| |--19----20----19----20------20---|--19----20----19----20------20---|
Gb| |---------------------------------|---------------------------------|
Db| |17----17----17----17-------------|16----16----16----16-------------|
Ab| |---------------------------------|---------------------------------|
Eb| |---------------------------------|---------------------------------|

 ___________________
| Outro (3:12-3:25) |
|___________________|

Guitar 1
eb| |-------------------------7-------|--------------10~~---------------|
Bb| |---7-----8-----7-----8-------8---|---7-----8-----8~~---------------|
Gb| |-0-----0-----0-----0-------------|-0-----0----0-(0)~---------------|
Db| |---------------------------------|---------------------------------|
Ab| |---------------------------------|---------------------------------|
Eb| |---------------------------------|---------------------------------|
                                                                        |
Guitar 2                                                                |
eb| |---------------------------------|---------------------------------|
Bb| |---------------------------------|---------------------------------|
Gb| |---------------------------------|---------------------------------|
Db| |-5~------------------------------|---------------------------------|
Ab| |-5~------------------------------|---------------------------------|
Eb| |-3~------------------------------|---------------------------------|


 ________
| Legend |
|________|

*   - Palm mute
(*) - Gradually release mute
~   - Sustain
\   - Slide down
x   - Mute
(0) - Slightly played
 _______
| Notes |
|_______|

Update- This is now fully complete.