Taking Back Sunday - Ill Let You Live Chords & Tabs

 

Ill Let You Live Chords & Tabs

Taking Back Sunday Chords & Tabs

Version: 1 Type: Tab

Ill Let You Live Tab

-----------------------------------------------------------------------
              Iíll Let You Live Ė Taking Back Sunday
-----------------------------------------------------------------------

Tabbed by: Jake

The intro and the chorus sounds really good. I know the verse is pretty bad. Please rate and comment.


Tuning: Ĺ step down


e|--------------------------------------------------------------------|
B|--------------------------------------------------------------------|
G|--------------------------------------------------------------------|
D|-------------0------44----------------------------------------------|
A|-------------0------22ódo this x19----------------------------------|
E|--------------------------------------------------------------------|
[ Tab from: https://www.guitartabs.cc/tabs/t/taking_back_sunday/ill_let_you_live_tab.html ]
    This is the slow part. Play 2x.
e|------7~----7-5~-----9-5~-----12-10-9-------------------------------|
B|--------------------------------------------------------------------|
G|--------------------------------------------------------------------|
D|--------------------------------------------------------------------|
A|--------------------------------------------------------------------|
E|--------------------------------------------------------------------|


e|--------------------------------------------------------------------|
B|--------------------------------------------------------------------|
G|--------------------------------------------------------------------|
D|----555~-----------555~-----222~--4~--555~----555~----22222222------|
A|----555~-----------555~-----222~--4~--555~----555~----22222222------|
E|----333~-----------333~-----000~--2~--333~----333~----00000000------|
                                                        ........